» » »

Smashing Pumpkins - Set The Ray To Jerry Tabs

Artists:  A B C D E F G H I J K L M N O P Q R S T U V W X Y Z # 

Set The Ray To Jerry Tabs

(ver. 3) Click to play this song!
Smashing Pumpkins
 Rating:
4/5 (4 votes)
                Release: 1979 single
Enjoy!

Tuning is 1/2 step down

INTRO/VERSE
|---------------------------------0---0---|
|---0---0---0---0---0---0---0---0---0---0-|
|-8---8---8---8---8---8---8---8-----------|
|-----------------------------------------|
|-----------------------------------------|
|-----------------------------------------|


CHORUS
|---------------0----|
|-0--------0---------|
|---11-------11------|
|------13---------13-|
|--------------------|
|--------------------|


VERSE
|---------------------------------0---0---|
|---0---0---0---0---0---0---0---0---0---0-|
|-8---8---8---8---8---8---8---8-----------|
|-----------------------------------------|
|-----------------------------------------|
|-----------------------------------------|


CHORUS
|---------------0----|
|-0--------0---------|
|---11-------11------|
|------13---------13-|
|--------------------|
|--------------------|


VERSE
|---------------------------------0---0---|
|---0---0---0---0---0---0---0---0---0---0-|
|-8---8---8---8---8---8---8---8-----------|
|-----------------------------------------|
|-----------------------------------------|
|-----------------------------------------|


CHORUS
|---------------0----|
|-0--------0---------|
|---11-------11------|
|------13---------13-|
|--------------------|
|--------------------|
            
Submit corrections

↑ Back to top | Tablatures and chords for acoustic guitar and electric guitar, ukulele, drums are parodies/interpretations of the original songs. You may use it for private study, scholarship, research or language learning purposes only