Home » S » Small Faces »

Small Faces - All Or Nothing Tabs

Artists:  A B C D E F G H I J K L M N O P Q R S T U V W X Y Z # 

All Or Nothing Tabs

(ver. 3) Click to play this song!
Small Faces
 Intro
  Q=114
  D
 4/4
  Gtr I
  E E E S S E Q.     E E E S S E E Q    E E E S S E Q.     E E E S S E E Q
|-------2h3p2-2----|-------2h3p2------|-------2h3p2-2----|-------2h3p2------||
|-----3------------|-----3-------3----|-----3------------|-----3-------3----||
|---2--------------|---2-----------2--|---2--------------|---2-----------2--||
|-0----------------|-0----------------|-0----------------|-0----------------||
|------------------|------------------|------------------|------------------||
|------------------|------------------|------------------|------------------||
  W                  W                  W                  W


   1st - 3rd Verses
    $
    A                                     D
    E E E E +E  E E E   E E E E E E E E   E E E S S E Q.     E E E S S E E Q
||--------------------|-----------------|-------2h3p2-2----|-------2h3p2------|
||o-------2-(2)-------|-------2-----2---|-----3------------|-----3-------3----|
||------2-------2---2-|-----2---2-----2-|---2--------------|---2-----------2--|
||----2-----------2---|---2-------2-----|-0----------------|-0----------------|
||o-0-----------------|-0---------------|------------------|------------------|
||--------------------|-----------------|------------------|------------------|
    W                   W                 W                  W


  A                                     D                               G
  E E E E +E  E E E   E E E E E E E E   E E E S S E Q.     E E Q  E E E E
|-------------------|-----------------|-------2h3p2-2----|-----2--2-----3-|
|-------2-(2)-------|-------2-----2---|-----3------------|-----3--3-2---0-|
|-----2-------2---2-|-----2---2-----2-|---2--------------|---2-2--2-2---0-|
|---2-----------2---|---2-------2-----|-0----------------|-0--------2---0-|
|-0-----------------|-0---------------|------------------|----------------|
|-------------------|-----------------|------------------|--------------3-|
  W                   W                 W                  H      E E E E


                          D   A                               D
  +Q   Q  Q  Q    Q  Q  E e E E   +Q   Q  Q  Q    Q  Q  E E E E
|-(3)--3--3--3--|-3--3--3-2-----|---------------|-------------2--||
|-(0)--0--0--0--|-0--0--0-3---2-|-(2)--2--2--2--|-2--2--2-0---3--||
|-(0)--0--0--0--|-0--0--0-2---2-|-(2)--2--2--2--|-2--2--2-0---2--||
|-(0)--0--0--0--|-0--0--0-0---2-|-(2)--2--2--2--|-2--2--2-0---0--||
|---------------|-------------0-|-(0)--0--0--0--|-0--0--0--------||
|-(3)--3--3--3--|-3--3--3-------|---------------|----------------||
  +Q   Q  Q  Q


 Chorus
          DsDs4Dsus2  D    A5 B5                                G
  +Q   Q  E Q  E   Q  Q  E Q  E   Q  Q  E E E E   E E E E E E E E
|-(2)--2--3-2--0-|-0--2--2------|---------------|---------------3--|
|-(3)--3--3-3--3-|-3--3--3------|---------------|---------------0--|
|-(2)--2--2-2--2-|-2--2--2----4-|-4--4--4-4-4-4-|-4-4-4-4-4-4---0--|
|-(0)--0--0-0--0-|-0--0--0-2--4-|-4--4--4-4-4-4-|-4-4-4-4-4-4---0--|
|----------------|---------0--2-|-2--2--2-2-2-2-|-2-2-2-2-2-2------|
|----------------|--------------|---------------|-------------0-3--|


         To Coda
                                 D
  Q  Q  E E E E    E E H.        E E E S S E Q.     E E E S S E E Q
|-3--3--3-3-3-3--|-3-3-3-------|-------2h3p2-2----|-------2h3p2------|
|-0--0--0-0-0-0--|-0-0-0-------|-----3------------|-----3-------3----|
|-0--0--0-0-0-0--|-0-0-0-------|---2--------------|---2-----------2--|
|-0--0--0-0-0-0--|-0-0-0-------|-0----------------|-0----------------|
|----------------|-------------|------------------|------------------|
|-3--3--3-3-3-3--|-3-3-3-------|------------------|------------------|
                                 W                  W


  1.
  E E E S S E Q.     E E E S S E E Q
|-------2h3p2-2----|-------2h3p2-------||
|-----3------------|-----3-------3----o||
|---2--------------|---2-----------2---||
|-0----------------|-0-----------------||
|------------------|------------------o||
|------------------|-------------------||
  W                  W


 2.
                           D.S. al Coda
  D
  E E E E +E  a Q.     E E E S S E E Q
|-------3-(3)-3s5----|-------2h3p2--------||
|-----3--------------|-----3-------3------||
|---2----------------|---2-----------2----||
|-0------------------|-0------------------||
|--------------------|--------------------||
|--------------------|--------------------||
  W                    W


                                                      Out-Chorus
  &
  G             A                                 B5   D5
                                                       PM------------|
  E E E E E E E E   Q  E E E E E E   E E E E Q.   E    E E E E E E E E
|-3-3-3-3-3-3-3---|----------------|----------------||------------------|
|-0-0-0-0-0-0-0-2-|-2--2-2-2-2-2-2-|-2-2-2-2-2------||------------------|
|-0-0-0-0-0-0-0-2-|-2--2-2-2-2-2-2-|-2-2-2-2-2------||------------------|
|-0-0-0-0-0-0-0-2-|-2--2-2-2-2-2-2-|-2-2-2-2-2----4s||=7-7-9-7-7-7-9-7--|
|---------------0-|-0--0-0-0-0-0-0-|-0-0-0-0-0----2s||=5-5-5-5-5-5-5-5--|
|-3-3-3-3-3-3-3---|----------------|----------------||------------------|


            A5      B5                             A5  G5
  PM---------------------------------------------------------|     PM|
  E E E E E E E E   E E  E E E E  E E   E E  E E E E E E   E E E E E E E E
|-----------------|-------------------|------------------|------------------|
|-----------------|-------------------|------------------|------------------|
|-----------------|-------------------|------------------|-----5-4-----5-4--|
|-7-7-9-7-7-------|-------------------|------------------|-----5-5-----5-5--|
|-5-5-5-5-5-7---7s|=9-9-11-9-9-9-11-9-|-9-9-11-9-9-7---5-|-5-5-5-5-----5-5--|
|-----------5---5s|=7-7--7-7-7-7--7-7-|-7-7--7-7-7-5-0-3-|-3-3-----3-3------|


                    A5           A                 D      DsuD4Dsus2
  PM|     PM|
  E E E E E E E E   Q  Q  H      E E E E E E E E   Q  E E Q  E E
|-----------------|------------|-----------------|-2--2-2-3--2-0--|
|-----------------|------------|-2-2-2-2-2-2-2-2-|-3--3-3-3--3-3--|
|-----------------|------------|-2-2-2-2-2-2-2-2-|-2--2-2-2--2-2--|
|-----5-5-----5-5-|-2--2--2----|-2-2-2-2-2-2-2-2-|-0--0-0-0--0-0--|
|-5-5-5-5-5-5-5-5-|-0--0--0----|-0-0-0-0-0-0-0-0-|----------------|
|-3-3-----3-3-3-3-|------------|-----------------|----------------|


       D  DsDs4    B5                              G
  +Q   Q  E E Q    Q  Q  E E E E   Q  Q  E E E E   Q  Q  E E E E
|-(0)--2--3-2-2--|---------------|---------------|-3--3--3-3-3-3--|
|-(3)--3--3-3-3--|---------------|---------------|-0--0--0-0-0-0--|
|-(2)--2--2-2-2--|-4--4--4-4-4-4-|-4--4--4-4-4-4-|-0--0--0-0-0-0--|
|-(0)--0--0-0-0--|-4--4--4-4-4-4-|-4--4--4-4-4-4-|-0--0--0-0-0-0--|
|----------------|-2--2--2-2-2-2-|-2--2--2-2-2-2-|----------------|
|----------------|---------------|---------------|-3--3--3-3-3-3--|


                    D
  E E E E E E E E   E E E S S E Q.
|-3-3-3-3-3-3-3-3-|-------2h3p2-2----|
|-0-0-0-0-0-0-0-0-|-----3------------|
|-0-0-0-0-0-0-0-0-|---2--------------|
|-0-0-0-0-0-0-0-0-|-0----------------|
|-----------------|------------------|
|-3-3-3-3-3-3-3-3-|------------------|
                    W


  E E E S S E E Q    E E E S S E Q.      W
|-------2h3p2------|-------2h3p2-2----|-^2----*|
|-----3-------3----|-----3------------|-^3----*|
|---2-----------2--|---2--------------|-^2----*|
|-0----------------|-0----------------|-^0----*|
|------------------|------------------|-------*|
|------------------|------------------|-------*|
  W                  W            
Submit corrections

↑ Back to top | Tablatures and chords for acoustic guitar and electric guitar, ukulele, drums are parodies/interpretations of the original songs. You may use it for private study, scholarship, research or language learning purposes only