Home » S » Small Faces »

Small Faces - All Or Nothing Bass

Artists:  A B C D E F G H I J K L M N O P Q R S T U V W X Y Z # 

All Or Nothing Bass

(ver. 1) Click to play this song!
Small Faces
The Small Faces
Written by Steve Marriott and Ronnie Lane; released as a single 
with "Understanding" as the B-side, and on the album "From The Beginning"

Intro:
G|------- ------- ------- -------|------- ------- ------- -------|
D|-------------------------------|-------------------------------|
A|-------------------------------|-------------------------------|
E|-------------------------------|-------------------------------|
                              (drum roll)


G|------- ------- ------- -------|------- ------- ------- -------|
D|-------------------------------|-------------------------------|
A|5------------------------------|5------------------------------|
E|-------------------------------|-------------------------------|



G|------- ------- ------- -------|------- ------- ------- -------|
D|-------------------------------|-------------------------------|
A|5------------------------------|5------------------------------|
E|-------------------------------|-------------------------------|


Verse:
G|------- ------- ------- -------|------- ------- ------- -------|
D|-------------------------------|-------------------------------|
A|-------------------------------|-------------------------------|
E|5------------------------------|5---------------------------5--|
          I       thought you'd   listen                  to  my


G|------- ------- ------- -------|------- ------- ------- -------|
D|-------------------------------|-------------------------------|
A|5------------------------------|5---------------------------5--|
E|-------------------------------|-------------------------------|
          reason,


G|------- ------- ------- -------|------- ------- ------- -------|
D|-------------------------------|-------------------------------|
A|-------------------------------|-------------------------------|
E|5------------------------------|5---------------------------5--|
          But     now     I       see                     you don't


G|------- ------- ------- -------|------- ------- ------- -------|
D|-------------------------------|-------------------------------|
A|5------------------------------|5---------------5--------------|
E|-------------------------------|--------------------5-------3--|
          hear a      thing.


G|------- ------- ------- -------|------- ------- ------- -------|
D|-------------------------------|-------------------------------|
A|-------------------------------|--------------------5----------|
E|----------------3-------3------|3-------3-------3-----------5--|
          Try to  make you    see


G|------- ------- ------- -------|------- ------- ------- -------|
D|-------------------------------|-------------------------------|
A|-------------------------------|----------------------------5--|
E|--------5-------5-------5------|5-------5-------3---5----------|
          how it's got    to  be,                 Yes, it's,  all

Refrain:
G|------- ------- ------- -------|------- ------- ------- -------|
D|-------------------------------|-------------------------------|
A|--------5-------5-------5------|5-------5-------5--------------|
E|-------------------------------|--------------------5-------7--|
      right,      all     or  no  -   thing,


G|------- ------- ------- -------|------- ------- ------- -------|
D|-------------------------------|-------------------------------|
A|-------------------------------|-------------------------------|
E|7-------7-------7-------7------|7-------7-------7---5-------3--|
                  all     or  no  -   thing,


G|------- ------- ------- -------|------- ------- ------- -------|
D|-------------------------------|-------------------------------|
A|-------------------------------|-------------------------------|
E|3-------3-------3-------3------|3-------3-------3---5----------|
                  All     or  no  -   thing               for


G|------- ------- ------- -------|------- ------- ------- -------|
D|-------------------------------|-------------------------------|
A|5------------------------------|5------------------------------|
E|-------------------------------|----------------------------5--|
  me.


G|------- ------- ------- -------|------- ------- ------- -------|
D|-------------------------------|-------------------------------|
A|5------------------------------|5---------------------------5--|
E|-------------------------------|-------------------------------|


Verse:
G|------- ------- ------- -------|------- ------- ------- -------|
D|-------------------------------|-------------------------------|
A|-------------------------------|-------------------------------|
E|5------------------------------|5---------------------------5--|
              Things could work out                   just like I


G|------- ------- ------- -------|------- ------- ------- -------|
D|-------------------------------|-------------------------------|
A|5------------------------------|5---------------------------5--|
E|-------------------------------|-------------------------------|
          want them   to,                 yeah,


G|------- ------- ------- -------|------- ------- ------- -------|
D|-------------------------------|-------------------------------|
A|-------------------------------|-------------------------------|
E|5------------------------------|5---------------------------5--|
              If  I       could have                  the o - ther


G|------- ------- ------- -------|------- ------- ------- -------|
D|-------------------------------|-------------------------------|
A|5------------------------------|5---------------5--------------|
E|-------------------------------|--------------------5-------3--|
          half        of      me.


G|------- ------- ------- -------|------- ------- ------- -------|
D|-------------------------------|-------------------------------|
A|-------------------------------|--------------------5----------|
E|----------------3-------3------|3-------3-------3-----------5--|
              You know I      would,              huh, yeah,


G|------- ------- ------- -------|------- ------- ------- -------|
D|-------------------------------|-------------------------------|
A|-------------------------------|----------------------------5--|
E|----------------5-------5------|5-------5-------3---5----------|
          if  I   on  -   ly  could,              Yes, it's,  yeah,

Refrain:
G|------- ------- ------- -------|------- ------- ------- -------|
D|-------------------------------|-------------------------------|
A|--------5-------5-------5------|5-------5-------5--------------|
E|-------------------------------|--------------------5-------7--|
                  all     or  no  -   thing,          oh,


G|------- ------- ------- -------|------- ------- ------- -------|
D|-------------------------------|-------------------------------|
A|-------------------------------|-------------------------------|
E|7-------7-------7-------7------|7-------7-------7---5-------3--|
  yeah,           all     or  no  -   thing,  you hear my children


G|------- ------- ------- -------|------- ------- ------- -------|
D|-------------------------------|-------------------------------|
A|-------------------------------|-------------------------------|
E|3-------3-------3-------3------|3-------3-------3---5----------|
      saying      All     or  no  -   thing               for


G|------- ------- ------- -------|------- ------- ------- -------|
D|-------------------------------|-------------------------------|
A|5------------------------------|5------------------------------|
E|-------------------------------|----------------------------5--|
  me.


G|------- ------- ------- -------|------- ------- ------- -------|
D|-------------------------------|-------------------------------|
A|5------------------------------|5------------------------------|
E|-------------------------------|-------------------------------|


Verse:
G|------- ------- ------- -------|------- ------- ------- -------|
D|-------------------------------|-------------------------------|
A|-------------------------------|-------------------------------|
E|5------------------------------|5---------------------------5--|
          pa  -   pa  -   pa  -   para                 pa -  pa


G|------- ------- ------- -------|------- ------- ------- -------|
D|-------------------------------|-------------------------------|
A|5------------------------------|5---------------------------5--|
E|-------------------------------|-------------------------------|
  parapa


G|------- ------- ------- -------|------- ------- ------- -------|
D|-------------------------------|-------------------------------|
A|-------------------------------|-------------------------------|
E|5------------------------------|5---------------------------5--|
          pa  -   pa  -   pa  -   para                 pa -  pa


G|------- ------- ------- -------|------- ------- ------- -------|
D|-------------------------------|-------------------------------|
A|5------------------------------|5---------------5--------------|
E|-------------------------------|--------------------5-------3--|
  parapa


G|------- ------- ------- -------|------- ------- ------- -------|
D|-------------------------------|-------------------------------|
A|-------------------------------|-------------------------------|
E|--------3-------3-------3------|3-------3-------3---5-------5--|
      I ain't     telling you no lie, girl,


G|------- ------- ------- -------|------- ------- ------- -------|
D|-------------------------------|-------------------------------|
A|-------------------------------|----------------------------5--|
E|--------5-------5-------5------|5-------5-------3---5----------|
      so  don't you sit there and cry,        girl,           yeah!

Refrain:
G|------- ------- ------- -------|------- ------- ------- -------|
D|-------------------------------|-------------------------------|
A|--------5-------5-------5------|5-------5-------5--------------|
E|-------------------------------|--------------------5-------7--|
                  All     or  no  -   thing,      my, my, my,


G|------- ------- ------- -------|------- ------- ------- -------|
D|-------------------------------|-------------------------------|
A|-------------------------------|-------------------------------|
E|7-------7-------7-------7------|7-------7-------7---5-------3--|
                  yeah!               Oh,             oh,
                  all     or  no  -   thing,

G|------- ------- ------- -------|------- ------- ------- -------|
D|-------------------------------|-------------------------------|
A|-------------------------------|-------------------------------|
E|3-------3-------3-------3------|3-------3-------3-------3---5--|
  yeah,                 you know what I mean, yeah,   You got to,
                  all     or  no  -   thing

G|------- ------- ------- -------|------- ------- ------- -------|
D|-------------------------------|-------------------------------|
A|-------------------------------|----------------------------5--|
E|--------5-------5-------5------|5-------5-------3---5----------|
      got to,     got to keep on      trying!

Refrain:
G|------- ------- ------- -------|------- ------- ------- -------|
D|-------------------------------|-------------------------------|
A|5-------5-------5-------5------|5-------5-------5--------------|
E|-------------------------------|--------------------5-------7--|
                  All     or  no  -   thing,          mm,     yeah,


G|------- ------- ------- -------|------- ------- ------- -------|
D|-------------------------------|-------------------------------|
A|-------------------------------|-------------------------------|
E|7-------7-------7-------7------|7-------7-------7---5-------3--|
      got to,                             got to  keep on working out for
                  all     or  no  -   thing

G|------- ------- ------- -------|------- ------- ------- -------|
D|-------------------------------|-------------------------------|
A|-------------------------------|-------------------------------|
E|3-------3-------3-------3------|3-------3-------3---5-------5--|
  me, babe,       All     or  no  -   thing               for me,


G|------- ------- ------- -------|------- ------- ------- -------|
D|-------------------------------|-------------------------------|
A|-------------------------------|----------------------------5--|
E|--------5-------5-------5------|5-------5-------3---5----------|
          for me,         for me,     come on children,   yeah!

Refrain:
G|------- ------- ------- -------|------- ------- ------- -------|
D|-------------------------------|-------------------------------|
A|5-------5-------5-------5------|5-------5-------5--------------|
E|-------------------------------|--------------------5-------7--|
                                      yeah,            yeah, yeah,
                  All     or  no  -   thing

G|------- ------- ------- -------|------- ------- ------- -------|
D|-------------------------------|-------------------------------|
A|-------------------------------|-------------------------------|
E|7-------7-------7-------7------|7-------7-------7---5-------3--|
      yeah!                           I   kept on singing to my-
                  all     or  no  -   thing

G|------- ------- ------- -------|------- ------- ------- -------|
D|-------------------------------|-------------------------------|
A|-------------------------------|-------------------------------|
E|3-------3-------3-------3------|3-------3-------3---5----------|
  self:           all     or  no  -   thing,  yeah,       for


G|------- ------- ------- -------|------- ------- ------- -------|
D|-------------------------------|-------------------------------|
A|5------------------------------|5------------------------------|
E|-------------------------------|----------------------------5--|
  me,                         yeah!


G|------- ------- ------- -------|------- ------- ------- -------|
D|-------------------------------|-------------------------------|
A|5------------------------------|5------------------------------|
E|-------------------------------|-------------------------------|

Please e-mail me for any corrections, or write a comment.
            
Submit corrections

↑ Back to top | Tablatures and chords for acoustic guitar and electric guitar, ukulele, drums are parodies/interpretations of the original songs. You may use it for private study, scholarship, research or language learning purposes only