Home » S » Slightly Stoopid »

Slightly Stoopid - Wiseman Bass

Artists:  A B C D E F G H I J K L M N O P Q R S T U V W X Y Z # 

Wiseman Bass

(ver. 3) Click to play this song!
Slightly Stoopid
"
Time: 0:16  Repeat
G--------------------------------------------------|
D------------55-5/-------------77-55-44------------|
A--77-----33-----------55---55---------------------|
E-----00-----------33------------------------------|

Time: 1:13   Repeat
G-------------------------------------------|
D-------------55-------------55----77-------|
A--77------33------77-----33----55----------|
E-----00--------------00--------------------|

Time: 1:39  Repeat
G--------------------------------------------------|
D------------55-5/-------------77-55-44------------|
A--77-----33-----------55---55---------------------|
E-----00-----------33------------------------------|

Time: 1:58  Repeat
G-------------------------------------------|
D-------------55-------------55----77-------|
A--77------33------77-----33----55----------|
E-----00--------------00--------------------|

Time: 2:23  Repeat
G--------------------------------------------------|
D------------55-5/-------------77-55-44------------|
A--77-----33-----------55---55---------------------|
E-----00-----------33------------------------------|

Hey, i figured this out in like 5 minutes...i juss had to sit down and figure out at 
time to change the parts, i didn't put how many times to play each part, but you repeat it 
the next part comes so its pretty simple, im working on the rest of the
"            
Submit corrections

↑ Back to top | Tablatures and chords for acoustic guitar and electric guitar, ukulele, drums are parodies/interpretations of the original songs. You may use it for private study, scholarship, research or language learning purposes only