Home » S » Slightly Stoopid »

Slightly Stoopid - One Bright Day Tabs

Artists:  A B C D E F G H I J K L M N O P Q R S T U V W X Y Z # 

One Bright Day Tabs

(ver. 1) Click to play this song!
Slightly Stoopid
 Rating:
2.1/5 (24 votes)
                    (C)      (E)     (Am)    (F)         (C)     (G)     (C)     (F) (G)   *if cap on 5th fret

e|---5--------5-------5-------6(8)--------5-------8-------5-------6---8---|
B|---6--------5-------6-------6-----------6-------8-------6-------6---8---|
G|---5--------6-------7-------7-----------5-------9-------5-------7---9---|
D|---7--------7(5)----7-------8-----------7-------10------7-------8---10--|
A|---8--------7-------5-------8-----------8-------10------8-------8---10--|
E|---5--------5-------X-------6-----------5-------8-------5-------6---8---|

e|---5--------5-----------5---------5----------5---------5-----------6---------6------8--6--------|
B|------6----------6----------5----------5---------6---------6-----------6------------------------|
G|---------5---------5-----------6---------6----------7---------7-----------7---------------------|
D|------------------------------------------------------------------------------------------------|
A|---8--------------------7--------------------5--------------------------------------------------|
E|-------------------------------------------------------------------6----------------------------|

e|---5--------5-----------8--------8-----------5---------5--------------6---------8---------------|
B|------6----------6---------8----------8----------6---------6------------6---------8-------------|
G|---------5---------5----------9---------9-----------5--------5------------7---------9-----------|
D|------------------------------------------------------------------------------------------------|
A|---8-----------------------------------------8--------------------------------------------------|
E|------------------------8------------------------------------------6---------/8-----------------|            
Submit corrections

↑ Back to top | Tablatures and chords for acoustic guitar and electric guitar, ukulele, drums are parodies/interpretations of the original songs. You may use it for private study, scholarship, research or language learning purposes only