Home » S » Slightly Stoopid »

Slightly Stoopid - 2 Am Bass

Artists:  A B C D E F G H I J K L M N O P Q R S T U V W X Y Z # 

2 Am Bass

(ver. 1) Click to play this song!
Slightly Stoopid
-------------------------------------------------------------------------------
			     "2am" by Slightly Stoopid
-------------------------------------------------------------------------------


Tuning: Standard


The whole song is pretty much the same line with a few minor variations now and then.
This is the first line, and basically the whole song.

G|------------------------------------------------------------------------------|
D|------------------------------------------------------------------------------|
A|----5---------5---5/7----777777------7---7/9----------------------------------|
E|-3-----3-3--3---3-----5---------5--5---5--------------------------------------|


G|------------------------------------------------------------------------------|
D|------------------------------------------------------------------------------|
A|----55555-------5---5/7----777777------7---7/9--------------------------------|
E|-3---------3--3---3-----5---------5--5---5------------------------------------|
            
Submit corrections

↑ Back to top | Tablatures and chords for acoustic guitar and electric guitar, ukulele, drums are parodies/interpretations of the original songs. You may use it for private study, scholarship, research or language learning purposes only