» » »

Slightly Stoopid - Anywhere I Go Tabs

Artists:  A B C D E F G H I J K L M N O P Q R S T U V W X Y Z # 

Anywhere I Go Tabs

(ver. 2) Click to play this song!
Slightly Stoopid
 Rating:
4/5 (7 votes)

 Anywhere I Go lessons Tabs too difficult? Try these video lessons and learn fast
 
                e---3------------3---5----3----------------3---5--|
B---3------------4---6----3----------------4---6--|
G---3------------5---7----3----------------5---7--|
D---5--5p3------5---7-----5--12p10--------5---7---|
A---5-----5p3--3---5------5-------12p10--3---5----|
E-3---------------------3-------------------------|

e---3------------3---5----3----------------3---5--|
B---3------------4---6----3----------------4---6--|
G---3------------5---7----3----------------5---7--|
D---5--5p3------5---7-----5--12p10--------5---7---|
A---5-----5p3--3---5------5-------12p10--3---5----|
E-3---------------------3-------------------------|
            
Submit corrections


        Anywhere I Go lessons Hard to play? Try these video lessons and learn fast Anywhere I Go lessons
        
↑ Back to top | Tablatures and chords for acoustic guitar and electric guitar, ukulele, drums are parodies/interpretations of the original songs. You may use it for private study, scholarship, research or language learning purposes only