» » »

Slash - Withered Delilah Tabs

Artists:  A B C D E F G H I J K L M N O P Q R S T U V W X Y Z # 

Withered Delilah Tabs

(ver. 2) Click to play this song!
Slash
 Rating:
4.4/5 (5 votes)

 Withered Delilah  lessons Tabs too difficult? Try these video lessons and learn fast
 
                [Intro]
Eb|--------5--------------------|------------------------|
Bb|-----------8--5--------------|------------------------|
Gb|--7b-------------7pbr--L--5--|--7--5-----5------------|
Db|-----------------------------|--------7---------7-----|
Ab|-----------------------------|---------------------7--|
Eb|-----------------------------|------------------------|

Eb|-------------------------|-----------------------|------------------------|
Bb|-------------------------|-----------------------|--5-----5--8------------|
Gb|-----------5-------------|-----------------------|--7b----------7pbr--5---|
Db|--5--7-------------7-----|--5--7-----------------|-----------------------7|
Ab|--------7-------------7--|--------3b----0--------|------------------------|
Eb|-------------------------|-----------------------|------------------------|


Eb|------------------------|-------------------------|-----------------------|
Bb|------------------------|-------------------------|-----------------------|
Gb|--7--5-----5------------|-----------5-------------|-----------------------|
Db|--------7---------7-----|--5--7-------------7-----|--5--7-----------------|
Ab|---------------------7--|--------7-------------7--|--------3b----0--------|
Eb|------------------------|-------------------------|-----------------------|

Eb|-----------------------------|------------------------|
Bb|--5-----5--8-----------------|------------------------|
Gb|--7b----------7pbr--L--5-----|--7--5-----5------------|
Db|--------------------------7--|--------7---------7-----|
Ab|-----------------------------|---------------------7--|
Eb|-----------------------------|------------------------|


Eb|-------------------------|-----------------------|
Bb|-------------------------|-----------------------|
Gb|-----------5-------------|-----------------------|
Db|--5--7-------------7-----|--5--7-----------------|
Ab|--------7-------------7--|--------3b----0--------|
Eb|-------------------------|-----------------------|


Eb|---------------------------|------------------------|
Bb|---------------------------|------------------------|
Gb|---------------------------|------------------------|
Db|-----5--7--5---------------|------------------------|
Ab|--7-----------7s--5--3-----|--5--3-----3------------|
Eb|------------------------5--|--------5---------5--0--|

Eb|------------------------|----------------------|
Bb|------------------------|----------------------|
Gb|------------------------|----------------------|
Db|------------------------|----------------------|
Ab|-----------3------------|--------3-------------|
Eb|--3--5--5---------5--0--|--3--5-------5--------|

[Verse]
Eb|----|-----|--2--|
Bb|----|--1--|--3--|
Gb|-2--|--2--|--2--|  x2
Db|-2--|--3--|--0--|
Ab|-0--|--3--|-----|
Eb|----|-----|-----|

[Pre-Chorus]
Eb|------------------------|--2--2-2---------------|
Bb|------------------------|--3--3-3---------------|
Gb|------------------------|--2--2-2---------------|
Db|--3-----3----3----3--3--|--0--0-0---0-0---------|
Ab|--3-----3----3----3--3--|----------------3-0----|
Eb|--1-----1----1----1--1--|---------------------0-|

Eb|---------------------------------------------------|
Bb|------------------------------5--------------------|
Gb|---------------------------------------------------|
Db|--5---5---5-5-----2------2s6-----------------------|
Ab|--5---5---5-5--------2-----------------------------|
Eb|--3---3---3-3—2s4----------------------------------|

[Chorus]
Eb|--9---------7-----------|--10--------10--------|
Bb|--10--------9-----------|--12--------10--------|
Gb|--9---------9-----------|--12--------11--------|   x2
Db|------------------------|------------12--------|
Ab|------------------------|----------------------|
Eb|------------------------|----------------------|

Eb|------5-------------------|-------------------------------8--|
Bb|--------5---------------5v|-------------------------------10-|
Gb|--7b9------7b9-5---7-5----|-7-------5-7v-5v------5-7b-5---10-|
Db|-----------------7-----7--|----5-7----------4-7--------------|
Ab|--------------------------|----------------------------------|
Eb|--------------------------|----------------------------------|

Eb|--8--------7------------|
Bb|--8--------9------------|
Gb|--9--------9------------|
Db|--10--------------------|
Ab|------------------------|
Eb|------------------------|

[Bridge]
Eb|----------------------------------|---------------------2-|
Bb|----------------------------------|-3--3---3-3---3---3--3-|
Gb|--4---5-4-5-4-5-4-5-4-5-4-5-4-5-4-|-2--2---2-2---2---2--2-|
Db|--5---5-5-5-5-5-5-5-5-5-5-5-5-5-5-|-0--0---0-0---0---0--0-|
Ab|--5---5-5-5-5-5-5-5-5-5-5-5-5-5-5-|-----------------------|
Eb|--3---3-3-3-3-3-3-3-3-3-3-3-3-3-3-|-----------------------|

Eb|----------------------------------|
Bb|----------------------------------|
Gb|--4---5-4-5-4-5-4-5-4-5-4-5-4-5-4-|
Db|--5---5-5-5-5-5-5-5-5-5-5-5-5-5-5-|
Ab|--5---5-5-5-5-5-5-5-5-5-5-5-5-5-5-|
Eb|--3---3-3-3-3-3-3-3-3-3-3-3-3-3-3-|


Eb|------------------------|----------------------|
Bb|------------------------|----------------------|
Gb|-2---2-2---2-2----------|----------------------|
Db|-3---3-3---3-3----------|--9---7---5---4-------|
Ab|-3---3-3---3-3----------|--7---5---3---2-------|
Eb|-1---1-1---1-1----------|----------------------|

[Solo]
Eb|------5----------5-------------------------------------|
Bb|--------5--8b10-----8--5--------------5----------------|
Gb|--7b9---------------------7b8r7p5--7-----5-------------|
Db|--------------------------------------------7--5-------|
Ab|--------------------------------------------------7----|
Eb|-------------------------------------------------------|


Eb|---------------------------------------------------|
Bb|---------------------------------------------------|
Gb|---------------------------------------------------|
Db|--5h7—5h7--5----------------------2----------------|
Ab|--------------7—5b6r5p4--5--4--5-----3----5--3-----|
Eb|---------------------------------------------------|


Eb|------------------------------------------------------------|
Bb|---------------------------------------5--------8--5--8-----|
Gb|---------------------5--------7--5--7-----7--5--------------|
Db|------5-----7--5--7-----7--5--------------------------------|
Ab|-5/7-----7--------------------------------------------------|
Eb|------------------------------------------------------------|


Eb|-5--------8--5--8--5--------5----------5----------5--------------------|
Bb|----8--5--------------8--5-----5—8b10-----5—8b10-----5—8b10------------|
Gb|-----------------------------------------------------------------------|
Db|-----------------------------------------------------------------------|
Ab|-----------------------------------------------------------------------|
Eb|-----------------------------------------------------------------------|


Eb|-5----------5----------5--------------------------8b10--------|
Bb|----5—8b10-----5—8b10-----8--5--------------5-----------------|
Gb|--------------------------------pb8r7p5--7-----5--------------|
Db|--------------------------------------------------------------|
Ab|--------------------------------------------------------------|
Eb|--------------------------------------------------------------|


Eb|--8--------8------10b12—10p8------10b12-------10b12----------|
Bb|-----7/10-----10--------------10-----------------------------|
Gb|-------------------------------------------------------------|
Db|-------------------------------------------------------------|
Ab|-------------------------------------------------------------|
Eb|-------------------------------------------------------------|


Eb|-10b12r10p8------10------8--------8—10b12r10b12—pb12r10p8-----------------|
Bb|-------------10------10-------10---------------------------10--10---------|
Gb|--------------------------------------------------------------------------|
Db|--------------------------------------------------------------------------|
Ab|--------------------------------------------------------------------------|
Eb|--------------------------------------------------------------------------|

[Volume swells]
Eb|------------------------------------------------------------------|
Bb|----7----------5----------------8-----------7--------5------------|
Gb|------------------------------------------------------------------|
Db|------------------------------------------------------------------|
Ab|------------------------------------------------------------------|
Eb|------------------------------------------------------------------|

[Chords leading to last chorus]
Eb|------------------------------|
Bb|------------------------------|
Gb|--2-------5------4-------1----|
Db|--3-------5------5-------2----|
Ab|--3-------3------5-------2----|
Eb|--1--------------3-------0----|
            
Submit corrections


        Withered Delilah  lessons Hard to play? Try these video lessons and learn fast Withered Delilah  lessons
        
↑ Back to top | Tablatures and chords for acoustic guitar and electric guitar, ukulele, drums are parodies/interpretations of the original songs. You may use it for private study, scholarship, research or language learning purposes only