Home » S » Slash »

Slash - Beneath The Savage Sun Tabs

Artists:  A B C D E F G H I J K L M N O P Q R S T U V W X Y Z # 

Beneath The Savage Sun Tabs

(ver. 1) Click to play this song!
Slash
 Rating:
4/5 (5 votes)
                      E  E  E  E  Q    Q       Q    Q    E  E  E  E     E  E  E  E  Q    Q     
D#||------------------------|------------------------|------------------------|
A#||------------------------|------------------------|------------------------|
F#||------------------------|------------------------|------------------------|
C#||-----2--3--4-------5----|-------2----------------|-----2--3--4-------5----|
G#||-----2--3--4-------5----|-------2-------1--0-----|-----2--3--4-------5----|
D#||--0-----------0---------|--0---------0--------3--|--0-----------0---------|


  Q    Q    E  E  E  E     E  E  E  E  Q    Q       Q    Q    E  E  E  E   
------------------------|------------------------|------------------------|
------------------------|------------------------|------------------------|
------------------------|------------------------|------------------------|
-------2----------------|-----2--3--4-------5----|-------2----------------|
-------2-------1--0-----|-----2--3--4-------5----|-------2-------1--0-----|
--0---------0--------3--|--0-----------0---------|--0---------0--------3--|


  E  E  E  E  Q    Q       Q    Q    E  E  E  E     E  E  E  E  Q    Q     
------------------------|------------------------|------------------------|
------------------------|------------------------|------------------------|
------------------------|------------------------|-------------------4----|
-----2--3--4-------5----|-------2----------------|-----2--3--4-------5----|
-----2--3--4-------5----|-------2-------1--0-----|-----2--3--4-------5----|
--0-----------0---------|--0---------0--------3--|--0-----------3---------|


  Q    Q    E  E  E  E     E  E  E  E  Q    Q       Q    Q    E  E  E  E   
------------------------|------------------------|------------------------|
------------------------|------------------------|------------------------|
-------6----------------|-------------------4----|-------6----------------|
-------7----------------|-----2--3--4-------5----|-------7----------------|
-------7----2--1--0-----|-----2--3--4-------5----|-------7----2--1--0-----|
--5------------------3--|--0-----------3---------|--5------------------3--|


  E  E  E  E  Q    Q       Q    Q    E  E  E  E     E  E  E  E  Q    Q     
------------------------|------------------------|------------------------|
------------------------|------------------------|------------------------|
-------------------4----|-------6----------------|-------------------4----|
-----2--3--4-------5----|-------7----------------|-----2--3--4-------5----|
-----2--3--4-------5----|-------7----2--1--0-----|-----2--3--4-------5----|
--0-----------3---------|--5------------------3--|--0-----------3---------|


  Q    Q     H           W                   H         
----------------------|-------------------|-----------|
----------------------|-------------------|-----------|
-------6-----9--------|--L----------------|--L--------|
-------7----10--------|--L----------------|--L--------|
-------7----10--------|--L----------------|--L--------|
--5-------------------|-------------------|-----------|


  E  E  E  E  E  E  E  E     E  S S E  E  E  E  Q       E  E  Q    E  E  E  E   
--------------------------|--------------------------|-------------------------|
--------------------------|--------------------------|-------------------------|
--L-----------------------|--------------------------|-------------------------|
--L-----------------------|--2--2-2-3--4--2--2--5----|--2--2--7----2--7--8--9--|
--L--3--2--0--1--0--------|--2--2-2-3--4--2--2--5----|--2--2--7----2--7--8--9--|
--------------------3--2--|--0--0-0-1--2--0--0--3----|--0--0--5----0--5--6--7--|


  E  S S E  E  E  E  Q       E  E  Q    E  E  E  E     E  S S E  E  E  E  Q     
--------------------------|-------------------------|--------------------------|
--------------------------|-------------------------|--------------------------|
--------------------------|-------------------------|--------------------------|
--2--2-2-3--4--2--2--5----|--2--2--7----2--7--8--9--|--2--2-2-3--4--2--2--5----|
--2--2-2-3--4--2--2--5----|--2--2--7----2--7--8--9--|--2--2-2-3--4--2--2--5----|
--0--0-0-1--2--0--0--3----|--0--0--5----0--5--6--7--|--0--0-0-1--2--0--0--3----|


  E  E  Q    E  E  E  E     E  S S E  E  E  E  Q       E  E  Q    E  E  E  E   
-------------------------|--------------------------|-------------------------|
-------------------------|--------------------------|-------------------------|
-------------------------|--------------------------|-------------------------|
--2--2--7----2--7--8--9--|--2--2-2-3--4--2--2--5----|--2--2--7----2--5--4--3--|
--2--2--7----2--7--8--9--|--2--2-2-3--4--2--2--5----|--2--2--7----2--5--4--3--|
--0--0--5----0--5--6--7--|--0--0-0-1--2--0--0--3----|--0--0--5----0--3--2--1--|


  E    
-----||
-----||
-----||
--2--||
--2--||
--0--||
            
Submit corrections

↑ Back to top | Tablatures and chords for acoustic guitar and electric guitar, ukulele, drums are parodies/interpretations of the original songs. You may use it for private study, scholarship, research or language learning purposes only