» » »

Slash - Bad Rain Bass

Artists:  A B C D E F G H I J K L M N O P Q R S T U V W X Y Z # 

Bad Rain Bass

(ver. 1) Click to play this song!
Slash
 Rating:
4/5 (5 votes)

 Bad Rain lessons Tabs too difficult? Try these video lessons and learn fast
 
                Tuning: Db Eb B E

Verse 1
|---------------------------|
|---------------------------|
|-------------2---5-4-3-----|
|-0-2-3-2-0--------------3--|

Verse 2
|---------------------------|
|---------------------------|
|-------------2---5-4-3-5---|
|-0-2-3-2-0-----------------|


Verse 3
|-----------------------------------|
|-----------------------------------|
|-------------2---5-5-4-4-3-3-1-1s2-|
|-0-2-3-2-0-------------------------|

Verse 4
|-------------------------|
|-------------------------|
|-------------2---5-4-3/--|
|-0-2-3-2-0---------------|

Bridge
|-----------------4-4-4-4-4-7-7-9-|
|---------------4-----------------|
|-2-2-2-2-2-2-2-------------------|
|---------------------------------|

Chorus 1
|--------------------------------|
|--------------------------------|
|-----2---0-2-3------------------|
|-0---------------3---0-2-3-2-0--|

Chorus 2
|-----------------------------------|
|-----------------------------------|
|-----2---0-2-3-5-------------------|
|-0---------------------------------|

Pre-solo
|-----------------------------------|----------------------------------|
|-----------------------------------|----------------------------------|
|------------------2222222222222202-|-33333333444444445555555555555222-|
|--3333333333333333-----------------|----------------------------------|

Fill
|----7-7-9----|
|-------------|
|-------------|
|-------------|

Outro x 4
|-------------------------------------|
|-------------------------------------|
|-------------------------------------|
|-0-0-0-0-0-0-0-0-0-0-0-0-0-0-0-2-3-2-|


Song Structure: 

VERSE 1 x7
VERSE 2 x1
BRIDGE x1
CHORUS 1 x4
VERSE 1 x3
VERSE 3 x1
VERSE 1 x4
CHORUS 1 x3
CHORUS 2 x1
PRE-SOLO
SOLO = CHORUS 1 x4
VERSE 1 x3
VERSE 4 x1
FILL
CHORUS 1 x3
CHORUS 2 x1
OUTRO x 4
            
Submit corrections


        Bad Rain lessons Hard to play? Try these video lessons and learn fast Bad Rain lessons
        
↑ Back to top | Tablatures and chords for acoustic guitar and electric guitar, ukulele, drums are parodies/interpretations of the original songs. You may use it for private study, scholarship, research or language learning purposes only