Home » S » Slash »

Slash - Gotten Bass

Artists:  A B C D E F G H I J K L M N O P Q R S T U V W X Y Z # 

Gotten Bass

(ver. 2) Click to play this song!
Slash
 Rating:
4/5 (4 votes)
                (Intro)
G----6----------------------------|
D---------------------------------|
A------------7---2---3------------|
E--------5------------------------|

(Verse)
G---------------------------------|
D---------------------------------|
A-4-------------------------------|
E---------------------5-----------|
  So nice to see your face again
G---------------------------------|
D---------------------------------|
A---------------------------------|
E------------------0--------------|
  Tell me how long has it been
G---------------------------------|
D---------------------------------|
A---------------------------------|
E-------------------7-------------|
  Since you've been here
G---------------------------------|
D---------------------------------|
A-3-------------------------------|
E---------------------------------|
  (Since you've been here)
G---------------------------------|
D---------------------------------|
A---------------------------------|
E-9---------------------5---------|
  You look so different than before
G---------------------------------|
D---------------------------------|
A---------------------------------|
E-------------------------0-------|
  You're still the person I adore
G---------------------------------|
D---------------------------------|
A---------------------------------|
E---------------------------------|
  Frozen with fear

G------------------------------------------------------------------|
D------------------------------------------------------------------|
A-------------------------------------------7----------------------|
E-7---------------------5------------------------------------------|
  All out of love but I take it from the past
G------------------------------------------------------------------|
D------------------------------------------------------------------|
A----------------------------------------------4-------------------|
E-7--------------------------5-------------------------5-----------|
  All out of words cause I'm sure it'll never last      ohhhhhhhhhh

(Chorus)
G--------------------------------------------------------|
D--------------------------------------------------------|
A----------------------------------------4---------------|
E-0----------------7-------------------------------------|
  I've been saving these last words for one last miracle
G--------------------------------------------------------|
D--------------------------------------------------------|
A--------------------------------------------------------|
E-----5--------------------------------------------------|
  But now I'm not sure
G--------------------------------------------------------|
D--------------------------------------------------------|
A----------------------2---------------------------------|
E-0------------------------------------------------------|
  I can't save you if you don't let me
G--------------------------------------------------------|
D--------------------------------------------------------|
A-4------------------------------------------------------|
E---------------------------5----------8-------9---------|
You just get me like I've never been gotten before

(Bridge)
G-------------------------------|
D-------------------------------|
A----------7---2---3------------|
E------5------------------------|

(Verse 2)
G---------------------------------|
D---------------------------------|
A-4-------------------------------|
E---------------------5-----------|
  Maybe it's a bitter wind
G---------------------------------|
D---------------------------------|
A---------------------------------|
E------------------0--------------|
  That chilled from the pacific rim
G----------------------------------|
D----------------------------------|
A----------------------------------|
E------------------7---------------|
  That brought you this way
G---------------------------------|
D---------------------------------|
A-3-------------------------------|
E---------------------------------|
  (Brought you my way)
G---------------------------------|
D---------------------------------|
A---------------------------------|
E-9---------------------5---------|
  Do not make me think of him
G---------------------------------|
D---------------------------------|
A---------------------------------|
E-------------------------0-------|
  The way he touched your fragile skin
G---------------------------------|
D---------------------------------|
A---------------------------------|
E---------------------------------|
  That haunts me every day

G------------------------------------------------------------------|
D------------------------------------------------------------------|
A-------------------------------------------7----------------------|
E-7---------------------5------------------------------------------|
  I'm out of love but I cant forget the past
G------------------------------------------------------------------|
D------------------------------------------------------------------|
A----------------------------------------------4-------------------|
E-7--------------------------5-------------------------5-----------|
  I'm out of words cause I'm sure it'll never last      ohhhhhhhhhh

(Chorus)
G--------------------------------------------------------|
D--------------------------------------------------------|
A----------------------------------------4---------------|
E-0----------------7-------------------------------------|
  I've been saving these last words for one last miracle
G--------------------------------------------------------|
D--------------------------------------------------------|
A--------------------------------------------------------|
E-----5--------------------------------------------------|
  But now I'm not sure
G--------------------------------------------------------|
D--------------------------------------------------------|
A----------------------2---------------------------------|
E-0------------------------------------------------------|
  I can't save you if you don't let me
G--------------------------------------------------------|
D--------------------------------------------------------|
A-4------------------------------------------------------|
E---------------------------5----------8-------4---------|
  You just get me like I've never been gotten before
G--------------------------------------------------------|
D--------------------------------------------------------|
A--------------------------------------------------------|
E---------------------------5----------8-----------------|
                 Like I've never been gotten before

(Solo)
G-------------------------------|
D-------------------------------|
A---4-------7---2---3-----------|
E-------5-----------------------|

(Bridge)
G---------------------------------|
D---------------------------------|
A---------------------------------|
E-9-------------------5-----------|
  So nice to see your face again
G---------------------------------|
D---------------------------------|
A-----------------------7---------|
E---------------------------------|
  But tell me will this ever end
G----------------------------------|
D----------------------------------|
A----------------------------------|
E-----------7----------------------|
  Don't disappear

(Chorus)
G--------------------------------------------------------|
D--------------------------------------------------------|
A----------------------------------------4---------------|
E-0----------------7-------------------------------------|
I've been saving these last words for one last miracle
G--------------------------------------------------------|
D--------------------------------------------------------|
A--------------------------------------------------------|
E-----5--------------------------------------------------|
But now I'm not sure
G--------------------------------------------------------|
D--------------------------------------------------------|
A----------------------2---------------------------------|
E-0------------------------------------------------------|
I can't save you if you don't let me
G--------------------------------------------------------|
D--------------------------------------------------------|
A-4------------------------------------------------------|
E---------------------------5----------8-------9---------|
You just get me like I've never been gotten before

(Outro)

G--------------------------------------------------------|
D--------------------------------------------------------|
A------4-------------------------------------------------|
E----------------4----------5----------8-----------------|
     Yeah, yeah, yeehh     Like I've never been gotten before
            
Submit corrections

↑ Back to top | Tablatures and chords for acoustic guitar and electric guitar, ukulele, drums are parodies/interpretations of the original songs. You may use it for private study, scholarship, research or language learning purposes only