» » »

Slash - Crazy Life Tabs

Artists:  A B C D E F G H I J K L M N O P Q R S T U V W X Y Z # 

Crazy Life Tabs

(ver. 3) Click to play this song!
Slash
 Rating:
4/5 (4 votes)

 Crazy Life lessons Tabs too difficult? Try these video lessons and learn fast
 
                eb||--0-----0----2br-0---0--------0-0-0-0-0-0-0-0--------------||
Bb||--3b----3b---------3---3/5~---3---2---3---2----0h2p0-------||
Gb||-----------------------------------------------------------||
Db||----------------------------------------------------5-5~---||
Ab||-----------------------------------------------------------||
Eb||-----------------------------------------------------------||


eb||-------------------------------------------------------------------------------------------||
Bb||-------------------------------------------------------------------------------------------||
Gb||--------------------------------------------2----------------------------------------------||
Db||--2-----5~--2-----5~--2-----4--4--4---2-4-5---4--4--0-2-------------2--------------0p2h0---||
Ab||----5-2-------5-2-------5-2-----------------------------2-5p4p2-4-5---4-2-2-4--------------||
Eb||------------------------------------------------------------------------------5-3/---------||


eb||-----0------0---3b--0-h2p0---2---0h2p0---0-------------------------------------------||
Bb||-------0-3b---0------------3---3-------3------2h3p2---2p0---2------------------------||
Gb||--2b---------------------------------------/4-------3-----3---2h3p0h2p0----2--0------||
Db||------------------------------------------------------------------------2--------2---||
Ab||-------------------------------------------------------------------------------------||
Eb||-------------------------------------------------------------------------------------||


eb||--3p2p0-3p2p0-3p2p0-3p2p0-5p3p0-5p3p0-7p5p0-7p5p0-9p7p0-9p7p0-10p9p0-10p9p0-12p10p0-0--------||
Bb||--------------------------------------------------------------------------------------15b~---||
Gb||---------------------------------------------------------------------------------------------||
Db||---------------------------------------------------------------------------------------------||
Ab||---------------------------------------------------------------------------------------------||
Eb||---------------------------------------------------------------------------------------------||


eb||-------9-----------9----------------9----------------------------------||
Bb||--12b~---12p9-12-----12-9-h12p9----------------------------------------||
Gb||--------------------------------11b---12p11p9-13p11p9----11----9\8-----||
Db||------------------------------------------------------11----11-----9---||
Ab||-----------------------------------------------------------------------||
Eb||-----------------------------------------------------------------------||


eb||-------------------------------------------------------------12b---12-11-12b~---||
Bb||-----------------------------------------------9h11p9---9h11--------------------||
Gb||--------------------------6h8-6h8h9-8h9-8h9h11--------11------------------------||
Db||---------------------9----------------------------------------------------------||
Ab||---------7----7-9-11---11-------------------------------------------------------||
Eb||--7-9-11---11-------------------------------------------------------------------||


eb||-------0-14b-(14r)p12-14b~---14r-p12-17b-17--14b-14~----12----15b~-14r-p12----12-12-----------15\\---||
Bb||-5//14-----------------------------------------------------12--------------15-------15b~~~----15\\---||
Gb||-----------------------------------------------------------------------------------------------------||
Db||-----------------------------------------------------------------------------------------------------||
Ab||-----------------------------------------------------------------------------------------------------||
Eb||-----------------------------------------------------------------------------------------------------||


            
Submit corrections


        Crazy Life lessons Hard to play? Try these video lessons and learn fast Crazy Life lessons
        
↑ Back to top | Tablatures and chords for acoustic guitar and electric guitar, ukulele, drums are parodies/interpretations of the original songs. You may use it for private study, scholarship, research or language learning purposes only