» » »

Slash - Battleground Tabs

Artists:  A B C D E F G H I J K L M N O P Q R S T U V W X Y Z # 

Battleground Tabs

(ver. 1) Click to play this song!
Slash
 Rating:
4/5 (4 votes)

 Battleground  lessons Tabs too difficult? Try these video lessons and learn fast
 
                      E  E  E  E  E  E  E  E     E  E  E  E  E  E  E  E   
D#||--4--0-----4--0-----4--0--|--4--0-----4--0-----4--0--|
A#||--5--0-----5--0-----5--0--|--5--0-----5--0-----5--0--|
F#||--6--------6--------6-----|--6--------6--------6-----|
C#||-----6--6--------6-----6--|-----6--6--------6-----6--|
G#||--------------------------|--------------------------|
D#||--------------------------|--------------------------|


  E  E  E  E  E  E  E  E     E  E  E  E  E  E  E   E     Q.     Q.     Q     
--4--0-----4--0-----4--0--|--4--0-----4--0------------|--0------0------0----|
--5--0-----5--0-----5--0--|--5--0-----5--0------------|--0-------------0----|
--6--------6--------6-----|--6--------6-----6---------|---------------------|
--6-----6--------6-----6--|-----6--6-----------4s--6--|---------------------|
--------------------------|---------------------------|---------------------|
--------------------------|---------------------------|---------------------|


  E  E  Q    Q    E  E     E   E  E  Q    E  E   E     E  E  Q    E   E  E  E   
--L--0-------0-------0--|------------0----0---------|-----0--------------------|
--L----------0----0-----|--0------0-----------------|--------------------------|
------------------------|--------------------4s--6--|--6-----6-----------4-----|
--------6---------------|--4s--6--------------------|-------------4s--6--------|
------------------------|---------------------------|--------------------------|
------------------------|---------------------------|--------------------------|


  E  E  E  E  E  E  E  E     E  E  E  E  E  E  E  E   
--4--0-----4--0-----4--0--|--4--0-----4--0-----4--0--|
--5--0-----5--0-----5--0--|--5--0-----5--0-----5--0--|
--6--------6--------6-----|--6--------6--------6-----|
-----6--6--------6-----6--|-----6--6--------6-----6--|
--------------------------|--------------------------|
--------------------------|--------------------------|


  E  E  E  E  E  E  E  E     E  E  E  E  E  E  E   E     Q.     Q.     Q     
--4--0-----4--0-----4--0--|--4--0-----4--0------------|--0------0------0----|
--5--0-----5--0-----5--0--|--5--0-----5--0------------|--0-------------0----|
--6--------6--------6-----|--6--------6-----6---------|---------------------|
--6-----6--------6-----6--|-----6--6-----------4s--6--|---------------------|
--------------------------|---------------------------|---------------------|
--------------------------|---------------------------|---------------------|


  E  E  Q    Q    E  E     E   E  E  Q    E  E   E     E  E  E  E  E  E  E  E   
--L--0-------0-------0--|---------------------------|--------------------------|
--L----------0----0-----|--5s--7--7--7----7--7s--5--|--L--5--5--5--4--5--4--0--|
------------------------|---------------------------|--------------------------|
--------6---------------|---------------------------|--------------------------|
------------------------|---------------------------|--------------------------|
------------------------|---------------------------|--------------------------|


  E  E  E  E  E  E  E  E     E  E  E  E  E  E  E  E   
--4--0-----4--0-----4--0--|--4--0-----4--0-----4--0--|
--5--0-----5--0-----5--0--|--5--0-----5--0-----5--0--|
--6--------6--------6-----|--6--------6--------6-----|
-----6--6--------6-----6--|-----6--6--------6-----6--|
--------------------------|--------------------------|
--------------------------|--------------------------|


  E  E  E  E  E  E  E  E     E  E  E  E  E  E  E   E     Q.     Q.     Q     
--4--0-----4--0-----4--0--|--4--0-----4--0------------|--0------0------0----|
--5--0-----5--0-----5--0--|--5--0-----5--0------------|--0-------------0----|
--6--------6--------6-----|--6--------6-----6---------|---------------------|
--6-----6--------6-----6--|-----6--6-----------4s--6--|---------------------|
--------------------------|---------------------------|---------------------|
--------------------------|---------------------------|---------------------|


  E  E  Q    Q    E  E     E   Q    Q    E  E   E     E  E  Q    Q    E   E   
--L--0-------0----0--0--|-----------0----0---------|-----0-------------------|
--L----------0----------|-----------0----0---------|-------------------------|
------------------------|--4s--2------------2s--1--|--1----------4----4s--3--|
--------6---------------|--6s--4------------4s--2--|--------2----6----6s--4--|
------------------------|--------------------------|-------------------------|
------------------------|--------------------------|-------------------------|


  E  E  E  E  E  E  E  E     E  E  E  E  E  E  E  E     Q    E  E  E  E  E  E   
--0--0-----0-----0--0--0--|-----0--0--0--0-----0--0--|--0----0--0-----0--0--0--|
--------------2-----------|--2--------------2-----2--|--2----------2-----2-----|
--------6-----------4--3--|-----4--3--4--4-----4-----|--2----------------------|
--------4-----------------|--4--------------4--------|-------------------------|
--------------------------|--------------------------|-------------------------|
--------------------------|--------------------------|-------------------------|


  E  E  Q    Q.     S S    Q.     Q.     Q       E  E  E  E  E  E  E  E    
--------------------0-0-|--0------0-----------|-----0-----0--0-----0-----||
--2--2--2----2------2-2-|--3------3------2----|--L--2--2--2--2--0--2--0--||
-------------2------2-2-|--2-------------2----|--L-----2--------1-----1--||
--------2---------------|---------------------|--------------------------||
------------------------|---------------------|--------------------------||
------------------------|---------------------|--------------------------||


            
Submit corrections


        Battleground  lessons Hard to play? Try these video lessons and learn fast Battleground  lessons
        
↑ Back to top | Tablatures and chords for acoustic guitar and electric guitar, ukulele, drums are parodies/interpretations of the original songs. You may use it for private study, scholarship, research or language learning purposes only