Home » S » Slade »

Slade - Merry Christmas Everybody Tabs

Artists:  A B C D E F G H I J K L M N O P Q R S T U V W X Y Z # 

Merry Christmas Everybody Tabs

(ver. 2) Click to play this song!
Slade
 Rating:
4/5 (4 votes)
                                          Merry Christmas Everybody                             


                                                                           Slade



      H         H            Q     Q     Q     Q       E  E  E  E  E  E  E  E   
E||----------------------|--------------------------|--------------------------|
B||----------------------|--------------------------|--------------------------|
G||--15--------14--------|--12----12----10----10----|--7--7--7--7--7--7--7--7--|
D||--15--------14--------|--12----12----10----10----|--7--7--7--7--7--7--7--7--|
A||--13--------12--------|--10----10-----8-----8----|--5--5--5--5--5--5--5--5--|
E||----------------------|--------------------------|--------------------------|


  E  E  E  E  E  E  E  E       E  E  E  E  E  E  E  E   
--------------------------||---------------------------|
--------------------------||---------------------------|
--7--7--7--7--7--7--7--7--||*--------------------------|
--7--7--7--7--7--7--7--7--||*--5--5--5--5--5--5--5--5--|
--5--5--5--5--5--5--5--5--||---5--5--5--5--5--5--5--5--|
--------------------------||---3--3--3--3--3--3--3--3--|


  E  E  E  E  E  E  E  E     E  E  E  E  E  E  E  E   
--------------------------|--------------------------|
--------------------------|--------------------------|
--4--4--4--4--4--4--4--4--|--7--7--7--7--7--7--7--7--|
--4--4--4--4--4--4--4--4--|--7--7--7--7--7--7--7--7--|
--2--2--2--2--2--2--2--2--|--5--5--5--5--5--5--5--5--|
--------------------------|--------------------------|


  E  E  E  E  E  E  E  E        E  E  E  E  E  E  E  E   
---------------------------||---------------------------|
---------------------------||---------------------------|
--7--7--7--7--7--7--7--7--*||*--5--5--5--5--5--5--5--5--|
--7--7--7--7--7--7--7--7--*||*--5--5--5--5--5--5--5--5--|
--5--5--5--5--5--5--5--5---||---3--3--3--3--3--3--3--3--|
---------------------------||---------------------------|


  E  E  E  E  E  E  E  E       E  E  E  E  E  E  E  E   
---------------------------||--------------------------|
---------------------------||--------------------------|
--------------------------*||--2--2--2--2--2--2--2--2--|
--5--5--5--5--5--5--5--5--*||--2--2--2--2--2--2--2--2--|
--5--5--5--5--5--5--5--5---||--0--0--0--0--0--0--0--0--|
--3--3--3--3--3--3--3--3---||--------------------------|


  E  E  E  E  E  E  E  E     E  E  E  E  E  E  E  E   
--------------------------|--------------------------|
--------------------------|--------------------------|
--5--5--5--5--5--5--5--5--|--7--7--7--7--7--7--7--7--|
--5--5--5--5--5--5--5--5--|--7--7--7--7--7--7--7--7--|
--3--3--3--3--3--3--3--3--|--5--5--5--5--5--5--5--5--|
--------------------------|--------------------------|


  E  E  E  E  E  E  E  E     E  E  E  E  E  E  E  E   
--------------------------|--------------------------|
--------------------------|--------------------------|
--7--7--7--7--7--7--7--7--|--------------------------|
--7--7--7--7--7--7--7--7--|--5--5--5--5--5--5--5--5--|
--5--5--5--5--5--5--5--5--|--5--5--5--5--5--5--5--5--|
--------------------------|--3--3--3--3--3--3--3--3--|


  E  E  E  E  E  E  E  E     E  E  E  E  E  E  E  E   
--------------------------|--------------------------|
--------------------------|--------------------------|
--7--7--7--7--7--7--7--7--|--------------------------|
--7--7--7--7--7--7--7--7--|--8--8--8--8--8--8--8--8--|
--5--5--5--5--5--5--5--5--|--8--8--8--8--8--8--8--8--|
--------------------------|--6--6--6--6--6--6--6--6--|


  E  E  E  E  E  E  E  E     E  E  E  E  E  E  E  E   
--------------------------|--------------------------|
--------------------------|--------------------------|
--7--7--7--7--7--7--7--7--|--------------------------|
--7--7--7--7--7--7--7--7--|--5--5--5--5--5--5--5--5--|
--5--5--5--5--5--5--5--5--|--5--5--5--5--5--5--5--5--|
--------------------------|--3--3--3--3--3--3--3--3--|


  E  E  E  E  E  E  E  E     Q    Q    Q    Q       Q    Q    Q    Q     
--------------------------|----------------------|----------------------|
--------------------------|----------------------|----------------------|
--7--7--7--7--7--7--7--7--|----------------------|--7----7----7----7----|
--7--7--7--7--7--7--7--7--|--8----8----8----8----|--7----7----7----7----|
--5--5--5--5--5--5--5--5--|--8----8----8----8----|--5----5----5----5----|
--------------------------|--6----6----6----6----|----------------------|


  E  E  E  E  E  E  E  E     E  E  E  E  E  E  E  E   
--------------------------|--------------------------|
--------------------------|--------------------------|
--7--7--7--7--7--7--7--7--|--7--7--7--7--7--7--7--7--|
--7--7--7--7--7--7--7--7--|--7--7--7--7--7--7--7--7--|
--5--5--5--5--5--5--5--5--|--5--5--5--5--5--5--5--5--|
--------------------------|--------------------------|


    E  E  E  E  E  E  E  E     E  E  E  E  E  E  E  E   
|---------------------------|--------------------------|
|---------------------------|--------------------------|
|*--------------------------|--4--4--4--4--4--4--4--4--|
|*--5--5--5--5--5--5--5--5--|--4--4--4--4--4--4--4--4--|
|---5--5--5--5--5--5--5--5--|--2--2--2--2--2--2--2--2--|
|---3--3--3--3--3--3--3--3--|--------------------------|


  E  E  E  E  E  E  E  E     E  E  E  E  E  E  E  E     
--------------------------|---------------------------||
--------------------------|---------------------------||
--7--7--7--7--7--7--7--7--|--7--7--7--7--7--7--7--7--*||
--7--7--7--7--7--7--7--7--|--7--7--7--7--7--7--7--7--*||
--5--5--5--5--5--5--5--5--|--5--5--5--5--5--5--5--5---||
--------------------------|---------------------------||


   E  E  E  E  E  E  E  E     E  E  E  E  E  E  E  E     
---------------------------|---------------------------||
---------------------------|---------------------------||
*--5--5--5--5--5--5--5--5--|--------------------------*||
*--5--5--5--5--5--5--5--5--|--5--5--5--5--5--5--5--5--*||
---3--3--3--3--3--3--3--3--|--5--5--5--5--5--5--5--5---||
---------------------------|--3--3--3--3--3--3--3--3---||


  E  E  E  E  E  E  E  E     E  E  E  E  E  E  E  E   
--------------------------|--------------------------|
--------------------------|--------------------------|
--2--2--2--2--2--2--2--2--|--5--5--5--5--5--5--5--5--|
--2--2--2--2--2--2--2--2--|--5--5--5--5--5--5--5--5--|
--0--0--0--0--0--0--0--0--|--3--3--3--3--3--3--3--3--|
--------------------------|--------------------------|


  E  E  E  E  E  E  E  E     E  E  E  E  E  E  E  E   
--------------------------|--------------------------|
--------------------------|--------------------------|
--7--7--7--7--7--7--7--7--|--7--7--7--7--7--7--7--7--|
--7--7--7--7--7--7--7--7--|--7--7--7--7--7--7--7--7--|
--5--5--5--5--5--5--5--5--|--5--5--5--5--5--5--5--5--|
--------------------------|--------------------------|


  E  E  E  E  E  E  E  E     E  E  E  E  E  E  E  E   
--------------------------|--------------------------|
--------------------------|--------------------------|
--------------------------|--7--7--7--7--7--7--7--7--|
--5--5--5--5--5--5--5--5--|--7--7--7--7--7--7--7--7--|
--5--5--5--5--5--5--5--5--|--5--5--5--5--5--5--5--5--|
--3--3--3--3--3--3--3--3--|--------------------------|


  E  E  E  E  E  E  E  E     E  E  E  E  E  E  E  E   
--------------------------|--------------------------|
--------------------------|--------------------------|
--------------------------|--7--7--7--7--7--7--7--7--|
--8--8--8--8--8--8--8--8--|--7--7--7--7--7--7--7--7--|
--8--8--8--8--8--8--8--8--|--5--5--5--5--5--5--5--5--|
--6--6--6--6--6--6--6--6--|--------------------------|


  E  E  E  E  E  E  E  E     E  E  E  E  E  E  E  E     Q    Q    Q    Q     
--------------------------|--------------------------|----------------------|
--------------------------|--------------------------|----------------------|
--------------------------|--7--7--7--7--7--7--7--7--|----------------------|
--5--5--5--5--5--5--5--5--|--7--7--7--7--7--7--7--7--|--8----8----8----8----|
--5--5--5--5--5--5--5--5--|--5--5--5--5--5--5--5--5--|--8----8----8----8----|
--3--3--3--3--3--3--3--3--|--------------------------|--6----6----6----6----|


  Q    Q    Q    Q       E  E  E  E  E  E  E  E     E  E  E  E  E  E  E  E   
----------------------|--------------------------|--------------------------|
----------------------|--------------------------|--------------------------|
--7----7----7----7----|--7--7--7--7--7--7--7--7--|--7--7--7--7--7--7--7--7--|
--7----7----7----7----|--7--7--7--7--7--7--7--7--|--7--7--7--7--7--7--7--7--|
--5----5----5----5----|--5--5--5--5--5--5--5--5--|--5--5--5--5--5--5--5--5--|
----------------------|--------------------------|--------------------------|


  E  E  E  E  E  E  E  E     E  E  E  E  E  E  E  E   
--------------------------|--------------------------|
--------------------------|--------------------------|
--7-----7-----7-----7-----|--------------------------|
--7-----7-----7-----7-----|--8-----8-----8-----8-----|
--5-----5-----5-----5-----|--8-----8-----8-----8-----|
--------------------------|--6-----6-----6-----6-----|


  E  E  E  E  E  E  E  E     E  E  E  E  E  E  S E.   
--------------------------|--------------------------|
--------------------------|--------------------------|
--7-----7-----7-----7-----|--------------------5-7---|
--7-----7-----7-----7-----|--8-----8-----8-----5-7---|
--5-----5-----5-----5-----|--8-----8-----8-----3-5---|
--------------------------|--6-----6-----6-----------|


  E  E  E  E  E  E  E  E     E  E  E  E  E  E  E  E   
--------------------------|--------------------------|
--------------------------|--------------------------|
--7--7--7--7--7--7--7--7--|--7--7--7--7--7--7--7--7--|
--7--7--7--7--7--7--7--7--|--7--7--7--7--7--7--7--7--|
--5--5--5--5--5--5--5--5--|--5--5--5--5--5--5--5--5--|
--------------------------|--------------------------|


    E  E  E  E  E  E  E  E     E  E  E  E  E  E  E  E   
|---------------------------|--------------------------|
|---------------------------|--------------------------|
|*--------------------------|--4--4--4--4--4--4--4--4--|
|*--5--5--5--5--5--5--5--5--|--4--4--4--4--4--4--4--4--|
|---5--5--5--5--5--5--5--5--|--2--2--2--2--2--2--2--2--|
|---3--3--3--3--3--3--3--3--|--------------------------|


  E  E  E  E  E  E  E  E     E  E  E  E  E  E  E  E     
--------------------------|---------------------------||
--------------------------|---------------------------||
--7--7--7--7--7--7--7--7--|--7--7--7--7--7--7--7--7--*||
--7--7--7--7--7--7--7--7--|--7--7--7--7--7--7--7--7--*||
--5--5--5--5--5--5--5--5--|--5--5--5--5--5--5--5--5---||
--------------------------|---------------------------||


   E  E  E  E  E  E  E  E     E  E  E  E  E  E  E  E     
---------------------------|---------------------------||
---------------------------|---------------------------||
*--5--5--5--5--5--5--5--5--|--------------------------*||
*--5--5--5--5--5--5--5--5--|--5--5--5--5--5--5--5--5--*||
---3--3--3--3--3--3--3--3--|--5--5--5--5--5--5--5--5---||
---------------------------|--3--3--3--3--3--3--3--3---||


  E  E  E  E  E  E  E  E     E  E  E  E  E  E  E  E   
--------------------------|--------------------------|
--------------------------|--------------------------|
--2--2--2--2--2--2--2--2--|--5--5--5--5--5--5--5--5--|
--2--2--2--2--2--2--2--2--|--5--5--5--5--5--5--5--5--|
--0--0--0--0--0--0--0--0--|--3--3--3--3--3--3--3--3--|
--------------------------|--------------------------|


  E  E  E  E  E  E  E  E     E  E  E  E  E  E  E  E   
--------------------------|--------------------------|
--------------------------|--------------------------|
--7--7--7--7--7--7--7--7--|--7--7--7--7--7--7--7--7--|
--7--7--7--7--7--7--7--7--|--7--7--7--7--7--7--7--7--|
--5--5--5--5--5--5--5--5--|--5--5--5--5--5--5--5--5--|
--------------------------|--------------------------|


  E  E  E  E  E  E  E  E     E  E  E  E  E  E  E  E   
--------------------------|--------------------------|
--------------------------|--------------------------|
--------------------------|--7--7--7--7--7--7--7--7--|
--5--5--5--5--5--5--5--5--|--7--7--7--7--7--7--7--7--|
--5--5--5--5--5--5--5--5--|--5--5--5--5--5--5--5--5--|
--3--3--3--3--3--3--3--3--|--------------------------|


  E  E  E  E  E  E  E  E     E  E  E  E  E  E  E  E   
--------------------------|--------------------------|
--------------------------|--------------------------|
--------------------------|--7--7--7--7--7--7--7--7--|
--8--8--8--8--8--8--8--8--|--7--7--7--7--7--7--7--7--|
--8--8--8--8--8--8--8--8--|--5--5--5--5--5--5--5--5--|
--6--6--6--6--6--6--6--6--|--------------------------|


  E  E  E  E  E  E  E  E     E  E  E  E  E  E  E  E     Q    Q    Q    Q     
--------------------------|--------------------------|----------------------|
--------------------------|--------------------------|----------------------|
--------------------------|--7--7--7--7--7--7--7--7--|----------------------|
--5--5--5--5--5--5--5--5--|--7--7--7--7--7--7--7--7--|--8----8----8----8----|
--5--5--5--5--5--5--5--5--|--5--5--5--5--5--5--5--5--|--8----8----8----8----|
--3--3--3--3--3--3--3--3--|--------------------------|--6----6----6----6----|


  Q    Q    Q    Q       E  E  E  E  E  E  E  E     E  E  E  E  E  E  E  E   
----------------------|--------------------------|--------------------------|
----------------------|--------------------------|--------------------------|
--7----7----7----7----|--7--7--7--7--7--7--7--7--|--7--7--7--7--7--7--7--7--|
--7----7----7----7----|--7--7--7--7--7--7--7--7--|--7--7--7--7--7--7--7--7--|
--5----5----5----5----|--5--5--5--5--5--5--5--5--|--5--5--5--5--5--5--5--5--|
----------------------|--------------------------|--------------------------|


  E  E  E  E  E  E  E  E     E  E  E  E  E  E  E  E   
--------------------------|--------------------------|
--------------------------|--------------------------|
--------------------------|--7--7--7--7--7--7--7--7--|
--5--5--5--5--5--5--5--5--|--7--7--7--7--7--7--7--7--|
--5--5--5--5--5--5--5--5--|--5--5--5--5--5--5--5--5--|
--3--3--3--3--3--3--3--3--|--------------------------|


  E  E  E  E  E  E  E  E     E  E  E  E  E  E  E  E   
--------------------------|--------------------------|
--------------------------|--------------------------|
--------------------------|--7--7--7--7--7--7--7--7--|
--8--8--8--8--8--8--8--8--|--7--7--7--7--7--7--7--7--|
--8--8--8--8--8--8--8--8--|--5--5--5--5--5--5--5--5--|
--6--6--6--6--6--6--6--6--|--------------------------|


  E  E  E  E  E  E  E  E     E  E  E  E  E  E  E  E     Q    Q    Q    Q     
--------------------------|--------------------------|----------------------|
--------------------------|--------------------------|----------------------|
--------------------------|--7--7--7--7--7--7--7--7--|----------------------|
--5--5--5--5--5--5--5--5--|--7--7--7--7--7--7--7--7--|--8----8----8----8----|
--5--5--5--5--5--5--5--5--|--5--5--5--5--5--5--5--5--|--8----8----8----8----|
--3--3--3--3--3--3--3--3--|--------------------------|--6----6----6----6----|


  Q    Q    Q    Q       W                   W                  
----------------------|-------------------|-------------------||
----------------------|-------------------|-------------------||
--7----7----7----7----|--7----------------|--L----------------||
--7----7----7----7----|--7----------------|--L----------------||
--5----5----5----5----|--5----------------|--L----------------||
----------------------|-------------------|-------------------||




Duration Legend
---------------
W - whole
H - half
Q - quarter
E - 8th
S - 16th
T - 32nd
X - 64th
. - note dotted
|-n-|  - n-tuplets


Tablature Legend
----------------
L - tied note
x - dead note
g - grace note
(n) - ghost note
> - accentuded note
NH - natural harmonic
AH - artificial harmonic
TH - tapped harmonic
SH - semi harmonic
PH - pitch harmonic
h - hammer on
p - pull off
b - bend
br - bendRelease
pb - preBend
pbr - preBendRelease
brb - bendReleaseBend
\n/ - tremolo bar dip
\n - tremolo bar dive
-/n - tremolo bar Release up
/n\ - tremolo bar inverted dip
/n - tremolo bar return
-\n - tremolo bar Release down
S - shift slide
s - legato slide
/ -  slide into from below or out of upwards
\ -  slide into from above or out of downwards
~ - vibrato
W - wide vibrato
tr - trill
TP - tremolo picking
T - tapping
S - slap
P - pop
< - fade in
^ - brush up
v - brush down
            
Submit corrections

↑ Back to top | Tablatures and chords for acoustic guitar and electric guitar, ukulele, drums are parodies/interpretations of the original songs. You may use it for private study, scholarship, research or language learning purposes only