Home » S » Silversun Pickups »

Silversun Pickups - Lazy Eye Bass

Artists:  A B C D E F G H I J K L M N O P Q R S T U V W X Y Z # 

Lazy Eye Bass

(ver. 2) Click to play this song!
Silversun Pickups
-------------------------------------------------------------------------------
			     LAZY EYE - Silversun Pickups
-------------------------------------------------------------------------------


Tuning:Standard

main riff throughout song
G|---------------------------------|
D|---------------------------------|
A|-----------------2-2-2-----------|
E|-0-0-0-0-0-0-0-0-------0---0-0-0-|

played at the intro and later          played before singer starts screaming
G|---------------------------------|    |---------------------------------|
D|---------------------------------| or |---------------------------------|
A|-4-4-4-4-4-4-4-4-2-2-2-2-2-2-2-2-|    |-4-4-4-4-4-4-4-4-6-6-6-6-6-6-6-6-|
E|---------------------------------|    |---------------------------------|

4:16
G|-------------------------------|
D|---2-4-6-4-2--2---2-4-6-4-2--2-|
A|-4--------------2--------------|
E|-------------------------------|
            
Submit corrections

↑ Back to top | Tablatures and chords for acoustic guitar and electric guitar, ukulele, drums are parodies/interpretations of the original songs. You may use it for private study, scholarship, research or language learning purposes only