Home » S » Silversun Pickups »

Silversun Pickups - Lazy Eye Bass

Artists:  A B C D E F G H I J K L M N O P Q R S T U V W X Y Z # 

Lazy Eye Bass

(ver. 1) Click to play this song!
Silversun Pickups
Silversun Pickups

Basic Tab. With these parts, you should be able to recognize where it goes in the song. 
band sounds so much like the Pumpkins.

Intro
G|------------------------------------------|
D|------------------------------------------|
A|-4-4-4-4-4-4-4-4-6-6-6-6-6-6-6-6----------|
E|------------------------------------------|

G|--------------------------------------------------------------------|
D|--------------------------------------------------------------------|
A|--------------------------------------------------------------------|
E|-0-0-0-0-0-0-0-0-7-7-7-0-0-0-0-0-0-0-0-0-0-0-0-7-7-7-0-0-0-0-0-0-0-0|

Distorted Part
G|------------------------------------------|
D|------------------------------------------|
A|-----7-7-----7-7-----7-7-----7-7----------|
E|-0-0-----0-0-----0-0-----0-0--------------|

G|------------------------------------------|
D|------------------------------------------|
A|-4-4-4-4-4-4-4-4-6-6-6-6-6-6-6-6----------|
E|------------------------------------------|

Outro
G|--------------------------------------------------------------------|
D|--------------------------------------------------------------------|
A|--------------------------------------------------------------------|
E|-0-0-0-0-0-0-0-0-7-7-7-0-0-0-0-0-0-0-0-0-0-0-0-7-7-7-0-0-0-0-0-0-0-0|

G|----9-11/13/11-9---------9/11/13/11-9-------|
D|-11--------------11-9-11--------------11-9--|
A|--------------------------------------------|
E|--------------------------------------------|

G|----9-11/13/11-9---------9/11/13/11-9-/14-13-|
D|-11--------------11-9-11---------------------|
A|---------------------------------------------|
E|---------------------------------------------|
            
Submit corrections

↑ Back to top | Tablatures and chords for acoustic guitar and electric guitar, ukulele, drums are parodies/interpretations of the original songs. You may use it for private study, scholarship, research or language learning purposes only