Home » S » Silversun Pickups »

Silversun Pickups - Bloody Mary Nerve Endings Tabs

Artists:  A B C D E F G H I J K L M N O P Q R S T U V W X Y Z # 

Bloody Mary Nerve Endings Tabs

(ver. 1) Click to play this song!
Silversun Pickups
 Rating:
4/5 (4 votes)
                

P Pluck

Tuning: 1/2 Step Down

-------|-----------|--|-------------------------------------------------------|
-------|-12---10---|--|-------------------------------------------------------|
-------|-x----x----|--|-------------------------------------------------------|
-------|-14---10---|--|-------------------------------------------------------|
-------|-15---12---|--|-------------------------------------------------------|
-------|-x----x----|--|-------------------------------------------------------|


-------|------------|-----------|--|------------------------------------------|
-------|-17----13---|-5-----1---|--|------------------------------------------|
-------|-17----14---|-5-----2---|--|------------------------------------------|
-------|------------|-----------|--|------------------------------------------|
-------|------------|-----------|--|------------------------------------------|
-------|------------|-----------|--|------------------------------------------|
  Verse  P     P      P     P

-------|-------------|--|-----------------------------------------------------|
-------|-12--10--10--|--|-----------------------------------------------------|
-------|-x---x---x---|--|-----------------------------------------------------|
-------|-14--12--10--|--|-----------------------------------------------------|
-------|-------------|--|-----------------------------------------------------|
-------|-------------|--|-----------------------------------------------------|
  Verse Pt.2 Chords Strum

-------|---------|--|------------------------|-------------------|------------|
-------|-1---3---|--|------------------------|-------------------|------------|
-------|-x---x---|--|------------------------|-------------------|------------|
-------|-3---5---|--|------------------------|-------------------|------------|
-------|---------|--|------------------------|-------------------|------------|
-------|---------|--|------------------------|-------------------|------------|
  Chorus Chords Strum Interlude Intro Chords   Outro Intro Chords
            
Submit corrections

↑ Back to top | Tablatures and chords for acoustic guitar and electric guitar, ukulele, drums are parodies/interpretations of the original songs. You may use it for private study, scholarship, research or language learning purposes only