» » »

Silversun Pickups - Checkered Floor Tabs

Artists:  A B C D E F G H I J K L M N O P Q R S T U V W X Y Z # 

Checkered Floor Tabs

(ver. 2) Click to play this song!
Silversun Pickups
 Rating:
4/5 (4 votes)

 Checkered Floor lessons Tabs too difficult? Try these video lessons and learn fast
 
                song      : checkered floor
artist    : silversun pickups


here's how i play this song acoustically
not sure if this is accurate, but it sounds ok

standard tuning


verse

e--|----------------------------------------------------------------|
b--|----------------------------------------------------------------|
g--|----------------------------------------------------------------|
d--|6---6---6---6---6---6---6---6---4---4---4---4---4---4---4---4---|
a--|6---6---6---6---6---6---6---6---4---4---4---4---4---4---4---4---|
E--|4---4---4---4---4---4---4---4---2---2---2---2---2---2---2---2---|

e--|----------------------------------------------------------------|
b--|----------------------------------------------------------------|
g--|8---8---8---8-\-4---4---4---4-/-8---8---8---8-\-4---4---4---4---|
d--|9---9---9---9-\-2---2---2---2-/-9---9---9---9-\-2---2---2---2---|
a--|7---7---7---7-\-2---2---2---2-/-7---7---7---7-\-2---2---2---2---|
E--|0---0---0---0---0---0---0---0---0---0---0---0---0---0---0---0---|


prechorus

e--|----------------------------------------------------------------|
b--|----------------------------------------------------------------|
g--|3---3---3---3---3---3---3---3---3---3---3---3---3---3---3---3---|
d--|4---4---4---4---4---4---4---4---4---4---4---4---4---4---4---4---|
a--|4---4---4---4---4---4---4---4---4---4---4---4---4---4---4---4---|
E--|2---2---2---2---2---2---2---2---2---2---2---2---2---2---2---2---|

e--|----------------------------------------------------------------|
b--|----------------------------------------------------------------|
g--|8---8---8---8-\-4---4---4---4-/-8---8---8---8-\-4---4---4---4---|
d--|9---9---9---9-\-2---2---2---2-/-9---9---9---9-\-2---2---2---2---|
a--|7---7---7---7-\-2---2---2---2-/-7---7---7---7-\-2---2---2---2---|
E--|0---0---0---0---0---0---0---0---0---0---0---0---0---0---0---0---|


chorus

e--|----------------------------------------------------------------|
b--|----------------------------------------------------------------|
g--|4---4---4---4---4---4---4---4---4---4---4---4---4---4---4---4---|
d--|4---4---4---4---4---4---4---4---4---4---4---4---4---4---4---4---|
a--|2---2---2---2---2---2---2---2---2---2---2---2---2---2---2---2---|
E--|----------------------------------------------------------------|

e--|----------------------------------------------------------------|
b--|----------------------------------------------------------------|
g--|6---6---6---6---6---6---6---6---6---6---6---6---6---6---6---6---|
d--|7---7---7---7---7---7---7---7---7---7---7---7---7---7---7---7---|
a--|5---5---5---5---5---5---5---5---5---5---5---5---5---5---5---5---|
E--|----------------------------------------------------------------|

e--|------------------------|------------------------|----------------|
b--|------------------------|------------------------|----------------|
g--|------------------------|------------------------|----------------|
d--|5-----------2-----------|7-----------4-----------|----------------|
a--|5-----------2-----------|7-----------4-----------|----------------|
E--|3-----------0-----------|5-----------2-----------|----------------|
    ^   ^   ^   ^   ^   ^    ^   ^   ^   ^   ^   ^    ^   ^   ^   ^   
    1       2       3        1       2       3        1       2    


prebridge

e--|------------------------|------------------------|----------------|
b--|------------------------|------------------------|----------------|
g--|------------------------|------------------------|----------------|
d--|2---2---2---4---4---4---|5---5---5---7---7---7---|7---7---7---7---|
a--|2---2---2---4---4---4---|5---5---5---7---7---7---|7---7---7---7---|
E--|0---0---0---2---2---2---|3---3---3---5---5---5---|5---5---5---5---|
    ^   ^   ^   ^   ^   ^    ^   ^   ^   ^   ^   ^    ^   ^   ^   ^   
    1       2       3        1       2       3        1       2    


bridge

e--|----------------------------------------------------------------|
b--|----------------------------------------------------------------|
g--|9---9---9---9---9---9---9---9---9---9---9---9---9---9---9---9---|
d--|9---9---9---9---9---9---9---9---9---9---9---9---9---9---9---9---|
a--|7---7---7---7---7---7---7---7---7---7---7---7---7---7---7---7---|
E--|----------------------------------------------------------------|

e--|----------------------------------------------------------------|
b--|----------------------------------------------------------------|
g--|11--11--11--11--11--11--11--11--11--11--11--11--11--11--11--11--|
d--|11--11--11--11--11--11--11--11--11--11--11--11--11--11--11--11--|
a--|9---9---9---9---9---9---9---9---9---9---9---9---9---9---9---9---|
E--|----------------------------------------------------------------|

e--|----------------------------------------------------------------|
b--|----------------------------------------------------------------|
g--|----------------------------------------------------------------|
d--|12--12--12--12--12--12--12--12--12--12--12--12--12--12--12--12--|
a--|10--10--10--10--10--10--10--10--10--10--10--10--10--10--10--10--|
E--|10--10--10--10--10--10--10--10--10--10--10--10--10--10--10--10--|

e--|----------------------------------------------------------------|
b--|----------------------------------------------------------------|
g--|4---4---4---4---4---4---4---4---4---4---4---4---4---4---4---4---|
d--|4---4---4---4---4---4---4---4---4---4---4---4---4---4---4---4---|
a--|2---2---2---2---2---2---2---2---2---2---2---2---2---2---2---2---|
E--|----------------------------------------------------------------|


outro

e--|----------------------------------------------------------------|--
b--|----------------------------------------------------------------|--
g--|----------------------------------------------------------------|--
d--|2---2---2---2---2---2---2---2---2---2---2---2---2---4---4---4---|6-
a--|2---2---2---2---2---2---2---2---2---2---2---2---2---4---4---4---|6-
E--|0---0---0---0---0---0---0---0---0---0---0---0---0---2---2---2---|4-
            
Submit corrections


        Checkered Floor lessons Hard to play? Try these video lessons and learn fast Checkered Floor lessons
        
↑ Back to top | Tablatures and chords for acoustic guitar and electric guitar, ukulele, drums are parodies/interpretations of the original songs. You may use it for private study, scholarship, research or language learning purposes only