Home » S » Silverstein »

Silverstein - Giving Up Tabs

Artists:  A B C D E F G H I J K L M N O P Q R S T U V W X Y Z # 

Giving Up Tabs

(ver. 1) Click to play this song!
Silverstein
SILVERSTEIN - GIVING UP




Key:
~     = let the note ring out
..    = palm mute
/     = slide up
\     = slide down
h     = hammer-on
p     = pull-off
x     = mute string(s)
v     = vibrato

STANDARD TUNING

GUITAR ONE'S PARTS:

0:16
INTRO/VERSE: (only guitar 2 plays until 0:16 into the song)
e|-----------3~-1~-------------3~-1~-----|
B|--5~-3~-1~-------1~-5~-3~-1~-------1~--|
G|---------------------------------------|
D|---------------------------------------|
A|---------------------------------------|
E|---------------------------------------|

0:48
CHORUS:        (strumming not noted)                           
e|----------------------------------------------------------------|
B|----------------------------------------------------------------|
G|--10-10-10-10-10-10-10-10-10-10-10-10---------------------------|
D|--10-10-10-10-10-10-10-10-10-10-10-10--7-7-7-7-7-7-7-7-7-7-7-7--|
A|---8--8--8--8--8--8--8--8--8--8--8--8--7-7-7-7-7-7-7-7-7-7-7-7--|
E|---------------------------------------5-5-5-5-5-5-5-5-5-5-5-5--|

e|----------------------------------------------------------------|
B|----------------------------------------------------------------|
G|--10-10-10-10-10-10-10-10-10-10-10-10---------------------------|
D|--10-10-10-10-10-10-10-10-10-10-10-10--7-7-7-7-7-7-7-7-7-7-7-7--|
A|---8--8--8--8--8--8--8--8--8--8--8--8--7-7-7-7-7-7-7-7-7-7-7-7--|
E|---------------------------------------5-5-5-5-5-5-5-5-5-5-5-5--|

1:04
e|----------------------------------------------------------------|
B|----------------------------------------------------------------|
G|----------------------------------------------------------------|
D|---3-3-3-3-3-3-3-3-3--5-5-5-5-5-5-5-5--7-7-7-7-7-7-7-7-7-7-7-7--|
A|---3-3-3-3-3-3-3-3-3--5-5-5-5-5-5-5-5--7-7-7-7-7-7-7-7-7-7-7-7--|
E|---1-1-1-1-1-1-1-1-1--3-3-3-3-3-3-3-3--5-5-5-5-5-5-5-5-5-5-5-5--|

e|--------------------------------------------------------------------|
B|--------------------------------------------------------------------|
G|--------------------------------------------------------------------|
D|---3-3-3-3-3-3-3-3-3--5-5-5-5-5-5-5-5--7-7-7-7-7-7-7-7-7-7-7-7-x-x-x|
A|---3-3-3-3-3-3-3-3-3--5-5-5-5-5-5-5-5--7-7-7-7-7-7-7-7-7-7-7-7-x-x-x|
E|---1-1-1-1-1-1-1-1-1--3-3-3-3-3-3-3-3--5-5-5-5-5-5-5-5-5-5-5-5-x-x-x|
                                 (mute the strings and 'scratch' ^^^^^
1:20                                         them a bunch here)
e|--------------------------------------------------------------------|
B|--------------------------------------------------------------------|
G|-10-10-10-10-10-10--------------------------------------------------|
D|-10-10-10-10-10-10--10-10-10-10-10-10--10-10-10-10-10-10--5-5-5-5-5-|
A|--8--8--8--8--8--8--10-10-10-10-10-10--10-10-10-10-10-10--5-5-5-5-5-|
E|---------------------8--8--8--8--8--8---8--8--8--8--8--8--3-3-3-3-3-|

e|--------------------------------------------------------------------|
B|--------------------------------------------------------------------|
G|-10-10-10-10-10-10--------------------------------------------------|
D|-10-10-10-10-10-10--10-10-10-10-10-10--10-10-10-10-10-10--5-5-5-5-5-|
A|--8--8--8--8--8--8--10-10-10-10-10-10--10-10-10-10-10-10--5-5-5-5-5-|
E|---------------------8--8--8--8--8--8---8--8--8--8--8--8--3-3-3-3-3-|

e|--------------------------------------------------------------------|
B|--------------------------------------------------------------------|
G|-10-10-10-10-10-10--------------------------------------------------|
D|-10-10-10-10-10-10--10-10-10-10-10-10--10-10-10-10-10-10--5-5-5-5-5-|
A|--8--8--8--8--8--8--10-10-10-10-10-10--10-10-10-10-10-10--5-5-5-5-5-|
E|---------------------8--8--8--8--8--8---8--8--8--8--8--8--3-3-3-3-3-|

e|-------------------------------------------------------------------|
B|-------------------------------------------------------------------|
G|-10-10-10-10-10-10-------------------------------------------------|
D|-10-10-10-10-10-10--10-10-10-10-10-10--10-10-10-10-10-10-10-10-10--|
A|--8--8--8--8--8--8--10-10-10-10-10-10--10-10-10-10-10-10-10-10-10--|
E|---------------------8--8--8--8--8--8---8--8--8--8--8--8--8--8--8--|

1:36
CHORUS:        (strumming not noted)                           
e|----------------------------------------------------------------|
B|----------------------------------------------------------------|
G|--10-10-10-10-10-10-10-10-10-10-10-10---------------------------|
D|--10-10-10-10-10-10-10-10-10-10-10-10--7-7-7-7-7-7-7-7-7-7-7-7--|
A|---8--8--8--8--8--8--8--8--8--8--8--8--7-7-7-7-7-7-7-7-7-7-7-7--|
E|---------------------------------------5-5-5-5-5-5-5-5-5-5-5-5--|

e|----------------------------------------------------------------|
B|----------------------------------------------------------------|
G|--10-10-10-10-10-10-10-10-10-10-10-10---------------------------|
D|--10-10-10-10-10-10-10-10-10-10-10-10--7-7-7-7-7-7-7-7-7-7-7-7--|
A|---8--8--8--8--8--8--8--8--8--8--8--8--7-7-7-7-7-7-7-7-7-7-7-7--|
E|---------------------------------------5-5-5-5-5-5-5-5-5-5-5-5--|

1:52
e|----------------------------------------------|
B|----------------------------------------------|
G|----------------------------------------------|
D|---3-3-3-3--5-5-5-5--7-7-7-7-7-7-7-7-7-7-7-7--|
A|---3-3-3-3--5-5-5-5--7-7-7-7-7-7-7-7-7-7-7-7--|
E|---1-1-1-1--3-3-3-3--5-5-5-5-5-5-5-5-5-5-5-5--|
P.M. . . .    . . .       
e|--------------------------------------------------|
B|--------------------------------------------------|
G|--------------------------------------------------|
D|---3-3-3-3--5-5-5-5--7-7-7-7-7-7-7-7-7-7-7-7-x-x-x|<
A|---3-3-3-3--5-5-5-5--7-7-7-7-7-7-7-7-7-7-7-7-x-x-x|<
E|---1-1-1-1--3-3-3-3--5-5-5-5-5-5-5-5-5-5-5-5-x-x-x|<
P.M. . . .    . . . (mute the strings and 'scratch' ^<
                         them a bunch here)
2:08
e|--------------------------------------------------------------------|
B|--------------------------------------------------------------------|
G|-10-10-10-10-10-10--------------------------------------------------|
D|-10-10-10-10-10-10--10-10-10-10-10-10--10-10-10-10-10-10--5-5-5-5-5-|
A|--8--8--8--8--8--8--10-10-10-10-10-10--10-10-10-10-10-10--5-5-5-5-5-|
E|---------------------8--8--8--8--8--8---8--8--8--8--8--8--3-3-3-3-3-|

e|--------------------------------------------------------------------|
B|--------------------------------------------------------------------|
G|-10-10-10-10-10-10--------------------------------------------------|
D|-10-10-10-10-10-10--10-10-10-10-10-10--10-10-10-10-10-10--5-5-5-5-5-|
A|--8--8--8--8--8--8--10-10-10-10-10-10--10-10-10-10-10-10--5-5-5-5-5-|
E|---------------------8--8--8--8--8--8---8--8--8--8--8--8--3-3-3-3-3-|

e|--------------------------------------------------------------------|
B|--------------------------------------------------------------------|
G|-10-10-10-10-10-10--------------------------------------------------|
D|-10-10-10-10-10-10--10-10-10-10-10-10--10-10-10-10-10-10--5-5-5-5-5-|
A|--8--8--8--8--8--8--10-10-10-10-10-10--10-10-10-10-10-10--5-5-5-5-5-|
E|---------------------8--8--8--8--8--8---8--8--8--8--8--8--3-3-3-3-3-|

e|-------------------------------------|
B|-------------------------------------|
G|-10-10-10-10-10-10-------------------|
D|-10-10-10-10-10-10--10-10-10-10--5~--|
A|--8--8--8--8--8--8--10-10-10-10--5~--|
E|---------------------8--8--8--8--3~--|

2:23
e|---3--|
B|---5--|(strum this chord for a little while, you figure it out)
G|---5--|
D|------|
A|------|
E|------|

2:39  v-(optional if you dont feel like strumming the above chord anymore)
e|----------------------|
B|--5~-3~-1~--5~-3~-1~--|
G|----------------------|
D|----------------------|
A|----------------------|
E|----------------------|

2:53
e|----------------------|
B|----------------------|
G|----5-5-5-5--5-5-5-5--|
D|----5-5-5-5--5-5-5-5--|
A|----3-3-3-3--3-3-3-3--|
E|----------------------|
P.M.  . . . .

2:55    (strumming not noted)
e|----------------------------------------------------------------|
B|----------------------------------------------------------------|
G|--10-10-10-10-10-10-10-10---------------------------------------|
D|--10-10-10-10-10-10-10-10--7-7-7-7-7-7-7-7--5-5-5-5-5-5-5-5-----|(x4)
A|---8--8--8--8--8--8--8--8--7-7-7-7-7-7-7-7--5-5-5-5-5-5-5-5-----|
E|---------------------------5-5-5-5-5-5-5-5--3-3-3-3-3-3-3-3-----|

3:27
e|--------------------------------------------------------------------|
B|--------------------------------------------------------------------|
G|-10-10-10-10-10-10--------------------------------------------------|
D|-10-10-10-10-10-10--10-10-10-10-10-10--10-10-10-10-10-10--5-5-5-5-5-|
A|--8--8--8--8--8--8--10-10-10-10-10-10--10-10-10-10-10-10--5-5-5-5-5-|
E|---------------------8--8--8--8--8--8---8--8--8--8--8--8--3-3-3-3-3-|

e|--------------------------------------------------------------------|
B|--------------------------------------------------------------------|
G|-10-10-10-10-10-10--------------------------------------------------|
D|-10-10-10-10-10-10--10-10-10-10-10-10--10-10-10-10-10-10--5-5-5-5-5-|
A|--8--8--8--8--8--8--10-10-10-10-10-10--10-10-10-10-10-10--5-5-5-5-5-|
E|---------------------8--8--8--8--8--8---8--8--8--8--8--8--3-3-3-3-3-|

e|--------------------------------------------------------------------|
B|--------------------------------------------------------------------|
G|-10-10-10-10-10-10--------------------------------------------------|
D|-10-10-10-10-10-10--10-10-10-10-10-10--10-10-10-10-10-10--5-5-5-5-5-|
A|--8--8--8--8--8--8--10-10-10-10-10-10--10-10-10-10-10-10--5-5-5-5-5-|
E|---------------------8--8--8--8--8--8---8--8--8--8--8--8--3-3-3-3-3-|

e|--------------------------------------------------------------------|
B|--------------------------------------------------------------------|
G|-10-10-10-10-10-10--------------------------------------------------|
D|-10-10-10-10-10-10--10-10-10-10-10-10--10-10-10-10-10-10--5-5-5-5-5-|
A|--8--8--8--8--8--8--10-10-10-10-10-10--10-10-10-10-10-10--5-5-5-5-5-|
E|---------------------8--8--8--8--8--8---8--8--8--8--8--8--3-3-3-3-3-|

e|--------------------------------------------------------------------|
B|--------------------------------------------------------------------|
G|-10-10-10-10-10-10--------------------------------------------------|
D|-10-10-10-10-10-10--10-10-10-10-10-10--10-10-10-10-10-10--5-5-5-5-5-|
A|--8--8--8--8--8--8--10-10-10-10-10-10--10-10-10-10-10-10--5-5-5-5-5-|
E|---------------------8--8--8--8--8--8---8--8--8--8--8--8--3-3-3-3-3-|
e|--------------------------------------------------------------------|
B|--------------------------------------------------------------------|
G|-10-10-10-10-10-10--------------------------------------------------|
D|-10-10-10-10-10-10--10-10-10-10-10-10--10-10-10-10-10-10--5-5-5-5-5-|
A|--8--8--8--8--8--8--10-10-10-10-10-10--10-10-10-10-10-10--5-5-5-5-5-|
E|---------------------8--8--8--8--8--8---8--8--8--8--8--8--3-3-3-3-3-|

e|--------------------------------------------------------------------|
B|--------------------------------------------------------------------|
G|-10-10-10-10-10-10--------------------------------------------------|
D|-10-10-10-10-10-10--10-10-10-10-10-10--10-10-10-10-10-10--5-5-5-5-5-|
A|--8--8--8--8--8--8--10-10-10-10-10-10--10-10-10-10-10-10--5-5-5-5-5-|
E|---------------------8--8--8--8--8--8---8--8--8--8--8--8--3-3-3-3-3-|

e|-------------|
B|-------------|
G|-10----------|
D|-10--10--7~--|END
A|--8--10--7~--|
E|------8--5~--|

GUITAR TWO'S PARTS:

0:00
INTRO:                                                              (x5)
e|--------0-----0----------0-----0----------3-----3----------3-----3--|
B|----1-----1-----1----1-----1-----1------1---1-----1------1---1-----1|
G|------0-----0----------0-----0--------2-------2--------2-------2----|
D|--3----------------3------------------------------------------------|
A|------------------------------------0----------------0--------------|
E|--------------------------------------------------------------------|
cont.
e|--------0-----0----------0-----0----------3-----3----3~-|
B|----1-----1-----1----1-----1-----1------1---1-----1--1--|
G|------0-----0----------0-----0--------2-------2------2--|
D|--3----------------3---------------------------------x--|
A|------------------------------------0----------------0--|
E|--------------------------------------------------------|
0:48
CHORUS:
e|--8-0-0-15-0-0-13-0-0-12-0-0-10-0-8-0-|
B|--------------------------------------|
G|--------------------------------------|(x8)
D|--------------------------------------|
A|--------------------------------------|
E|--------------------------------------|

1:04
e|---------------------------------------|
B|---------------------------------------|
G|---------------------------------------|
D|---3-3-3-3-3-3-3-3-3--5-5-5-5-5-5-5-5--|
A|---3-3-3-3-3-3-3-3-3--5-5-5-5-5-5-5-5--|
E|---1-1-1-1-1-1-1-1-1--3-3-3-3-3-3-3-3--|

e|--8-0-0-15-0-0-13-0-0-12-0-0-10-0-8-0-|
B|--------------------------------------|
G|--------------------------------------|(x2)
D|--------------------------------------|
A|--------------------------------------|
E|--------------------------------------|

e|---------------------------------------|
B|---------------------------------------|
G|---------------------------------------|
D|---3-3-3-3-3-3-3-3-3--5-5-5-5-5-5-5-5--|
A|---3-3-3-3-3-3-3-3-3--5-5-5-5-5-5-5-5--|
E|---1-1-1-1-1-1-1-1-1--3-3-3-3-3-3-3-3--|

e|--8-0-0-15-0-0-13-0-0-12-0-0-10-0-8-0-|
B|--------------------------------------|
G|--------------------------------------|(x2)
D|--------------------------------------|
A|--------------------------------------|
E|--------------------------------------|

1:20                                        
e|--3--3--3--3--3--3---3--3--3--3--3--3-------------------------------|
B|--1--1--1--1--1--1---1--1--1--1--1--1-------------------------------|
G|--2--2--2--2--2--2---2--2--2--2--2--2---5--5--5--5--5--5--5-5-5-5-5-|
D|----------------------------------------5--5--5--5--5--5--5-5-5-5-5-|
A|----------------------------------------3--3--3--3--3--3--3-3-3-3-3-|
E|--------------------------------------------------------------------|

e|--3--3--3--3--3--3---3--3--3--3--3--3-------------------------------|
B|--1--1--1--1--1--1---1--1--1--1--1--1-------------------------------|
G|--2--2--2--2--2--2---2--2--2--2--2--2---5--5--5--5--5--5--5-5-5-5-5-|
D|----------------------------------------5--5--5--5--5--5--5-5-5-5-5-|
A|----------------------------------------3--3--3--3--3--3--3-3-3-3-3-|
E|--------------------------------------------------------------------|

e|--3--3--3--3--3--3---3--3--3--3--3--3-------------------------------|
B|--1--1--1--1--1--1---1--1--1--1--1--1-------------------------------|
G|--2--2--2--2--2--2---2--2--2--2--2--2---5--5--5--5--5--5--5-5-5-5-5-|
D|----------------------------------------5--5--5--5--5--5--5-5-5-5-5-|
A|----------------------------------------3--3--3--3--3--3--3-3-3-3-3-|
E|--------------------------------------------------------------------|

e|--3--3--3--3--3--3---3--3--3--3--3--3-------------------------------|
B|--1--1--1--1--1--1---1--1--1--1--1--1-------------------------------|
G|--2--2--2--2--2--2---2--2--2--2--2--2---5--5--5--5--5--5--5-5-5-5-5-|
D|----------------------------------------5--5--5--5--5--5--5-5-5-5-5-|
A|----------------------------------------3--3--3--3--3--3--3-3-3-3-3-|
E|--------------------------------------------------------------------|

1:35
CHORUS:
e|--8-0-0-15-0-0-13-0-0-12-0-0-10-0-8-0-|
B|--------------------------------------|
G|--------------------------------------|(x8)
D|--------------------------------------|
A|--------------------------------------|
E|--------------------------------------|

1:52
e|--------------------------------------|
B|--------------------------------------|
G|---------------------17--16--14--16---|
D|---3-3-3-3--5-5-5-5---x---x---x---x---|
A|---3-3-3-3--5-5-5-5--15--14--12--14---|
E|---1-1-1-1--3-3-3-3-------------------|
P.M. . . .    . . .       
e|--------------------------------------------------|
B|--------------------------------------------------|
G|--------------------------------------------------|
D|---3-3-3-3--5-5-5-5--7-7-7-7-7-7-7-7-7-7-7-7-x-x-x|<
A|---3-3-3-3--5-5-5-5--7-7-7-7-7-7-7-7-7-7-7-7-x-x-x|<
E|---1-1-1-1--3-3-3-3--5-5-5-5-5-5-5-5-5-5-5-5-x-x-x|<
P.M. . . .    . . . (mute the strings and 'scratch' ^<
                      a bunch of times)
 
2:08        
e|--3--3--3--3--3--3---3--3--3--3--3--3-------------------------------|
B|--1--1--1--1--1--1---1--1--1--1--1--1-------------------------------|
G|--2--2--2--2--2--2---2--2--2--2--2--2---5--5--5--5--5--5--5-5-5-5-5-|
D|----------------------------------------5--5--5--5--5--5--5-5-5-5-5-|
A|----------------------------------------3--3--3--3--3--3--3-3-3-3-3-|
E|--------------------------------------------------------------------|

e|--3--3--3--3--3--3---3--3--3--3--3--3-------------------------------|
B|--1--1--1--1--1--1---1--1--1--1--1--1-------------------------------|
G|--2--2--2--2--2--2---2--2--2--2--2--2---5--5--5--5--5--5--5-5-5-5-5-|
D|----------------------------------------5--5--5--5--5--5--5-5-5-5-5-|
A|----------------------------------------3--3--3--3--3--3--3-3-3-3-3-|
E|--------------------------------------------------------------------|

e|--3--3--3--3--3--3---3--3--3--3--3--3-------------------------------|
B|--1--1--1--1--1--1---1--1--1--1--1--1-------------------------------|
G|--2--2--2--2--2--2---2--2--2--2--2--2---5--5--5--5--5--5--5-5-5-5-5-|
D|----------------------------------------5--5--5--5--5--5--5-5-5-5-5-|
A|----------------------------------------3--3--3--3--3--3--3-3-3-3-3-|
E|--------------------------------------------------------------------|

e|--3--3--3--3--3--3---3--3--3--3--3--3------|
B|--1--1--1--1--1--1---1--1--1--1--1--1------|
G|--2--2--2--2--2--2---2--2--2--2--2--2---5~-|
D|----------------------------------------5~-|
A|----------------------------------------3~-|
E|-------------------------------------------|

2:23                                                              
e|--------0-----0----------0-----0----------3-----3----------3-----3--|
B|----1-----1-----1----1-----1-----1------1---1-----1------1---1-----1|
G|------0-----0----------0-----0--------2-------2--------2-------2----|
D|--3----------------3------------------------------------------------|
A|------------------------------------0----------------0--------------|
E|--------------------------------------------------------------------|

e|--------0-----0----------0-----0----------3-----3----------3-----3--|
B|----1-----1-----1----1-----1-----1------1---1-----1------1---1-----1|
G|------0-----0----------0-----0--------2-------2--------2-------2----|
D|--3----------------3------------------------------------------------|
A|------------------------------------0----------------0--------------|
E|--------------------------------------------------------------------|


e|--------0-----0----------0-----0----------3-----3-------------------|
B|----1-----1-----1----1-----1-----1------1---1-----1--------5-----5--|
G|------0-----0----------0-----0--------2-------2--------5-----5-----5|
D|--3----------------3------------------------------------------------|
A|------------------------------------0----------------3---3-----3----|
E|--------------------------------------------------------------------|

e|--------0-----0----------0-----0----------3-----3---|
B|----1-----1-----1----1-----1-----1------1---1-----1-|
G|------0-----0----------0-----0--------2-------2-----|               
D|--3----------------3--------------------------------|                 
A|------------------------------------0---------------|                 
E|----------------------------------------------------|                  

2:54
e|----------------------|
B|----------------------|
G|----5-5-5-5--5-5-5-5--|
D|----5-5-5-5--5-5-5-5--|
A|----3-3-3-3--3-3-3-3--|
E|----------------------|
P.M.  . . . .

2:55     (strumming not noted)
e|----------------------------------------------------------------|
B|----------------------------------------------------------------|
G|--10-10-10-10-10-10-10-10---------------------------------------|
D|--10-10-10-10-10-10-10-10--7-7-7-7-7-7-7-7--5-5-5-5-5-5-5-5-----|(x2)
A|---8--8--8--8--8--8--8--8--7-7-7-7-7-7-7-7--5-5-5-5-5-5-5-5-----|
E|---------------------------5-5-5-5-5-5-5-5--3-3-3-3-3-3-3-3-----|


3:11
e|---3--3h5p3----3--3h5p3----3--3h5p3------3--3h5p3-----|
B|------------------------------------------------------|
G|------------5-----------5-----------5--4----------5---|
D|------------------------------------------------------|
A|------------------------------------------------------|
E|------------------------------------------------------|

e|---3--3h5p3----3--3h5p3----3--3h5p3-------------------|
B|------------------------------------------------------|
G|------------5-----------5-----------5-----------------|
D|---------------------------------------5-5-5-5-5-5-5--|
A|---------------------------------------5-5-5-5-5-5-5--|
E|---------------------------------------3-3-3-3-3-3-3--|

3:27
e|--3--3--3--3--3--3---3--3--3--3--3--3-------------------------------|
B|--1--1--1--1--1--1---1--1--1--1--1--1-------------------------------|
G|--2--2--2--2--2--2---2--2--2--2--2--2---5--5--5--5--5--5--5-5-5-5-5-|
D|----------------------------------------5--5--5--5--5--5--5-5-5-5-5-|
A|----------------------------------------3--3--3--3--3--3--3-3-3-3-3-|
E|--------------------------------------------------------------------|

e|--3--3--3--3--3--3---3--3--3--3--3--3-------------------------------|
B|--1--1--1--1--1--1---1--1--1--1--1--1-------------------------------|
G|--2--2--2--2--2--2---2--2--2--2--2--2---5--5--5--5--5--5--5-5-5-5-5-|
D|----------------------------------------5--5--5--5--5--5--5-5-5-5-5-|
A|----------------------------------------3--3--3--3--3--3--3-3-3-3-3-|
E|--------------------------------------------------------------------|

e|--3--3--3--3--3--3---3--3--3--3--3--3-------------------------------|
B|--1--1--1--1--1--1---1--1--1--1--1--1-------------------------------|
G|--2--2--2--2--2--2---2--2--2--2--2--2---5--5--5--5--5--5--5-5-5-5-5-|
D|----------------------------------------5--5--5--5--5--5--5-5-5-5-5-|
A|----------------------------------------3--3--3--3--3--3--3-3-3-3-3-|
E|--------------------------------------------------------------------|

e|--3--3--3--3--3--3---3--3--3--3--3--3-------------------------------|
B|--1--1--1--1--1--1---1--1--1--1--1--1-------------------------------|
G|--2--2--2--2--2--2---2--2--2--2--2--2---5--5--5--5--5--5--5-5-5-5-5-|
D|----------------------------------------5--5--5--5--5--5--5-5-5-5-5-|
A|----------------------------------------3--3--3--3--3--3--3-3-3-3-3-|
E|--------------------------------------------------------------------|

e|--3--3--3--3--3--3---3--3--3--3--3--3-------------------------------|
B|--1--1--1--1--1--1---1--1--1--1--1--1-------------------------------|
G|--2--2--2--2--2--2---2--2--2--2--2--2---5--5--5--5--5--5--5-5-5-5-5-|
D|----------------------------------------5--5--5--5--5--5--5-5-5-5-5-|
A|----------------------------------------3--3--3--3--3--3--3-3-3-3-3-|
E|--------------------------------------------------------------------|

e|--3--3--3--3--3--3---3--3--3--3--3--3-------------------------------|
B|--1--1--1--1--1--1---1--1--1--1--1--1-------------------------------|
G|--2--2--2--2--2--2---2--2--2--2--2--2---5--5--5--5--5--5--5-5-5-5-5-|
D|----------------------------------------5--5--5--5--5--5--5-5-5-5-5-|
A|----------------------------------------3--3--3--3--3--3--3-3-3-3-3-|
E|--------------------------------------------------------------------|

e|--3--3--3--3--3--3---3--3--3--3--3--3-------------------------------|
B|--1--1--1--1--1--1---1--1--1--1--1--1-------------------------------|
G|--2--2--2--2--2--2---2--2--2--2--2--2---5--5--5--5--5--5--5-5-5-5-5-|
D|----------------------------------------5--5--5--5--5--5--5-5-5-5-5-|
A|----------------------------------------3--3--3--3--3--3--3-3-3-3-3-|
E|--------------------------------------------------------------------|

e|-------------|
B|-------------|
G|-10----------|
D|-10--10--7~--|END
A|--8--10--7~--|
E|------8--5~--|


RATE / CORRECT ...I think this tab is mostly correct though...
            
Submit corrections

↑ Back to top | Tablatures and chords for acoustic guitar and electric guitar, ukulele, drums are parodies/interpretations of the original songs. You may use it for private study, scholarship, research or language learning purposes only