Home » S » Silverstein »

Silverstein - Toronto Unabridged Tabs

Artists:  A B C D E F G H I J K L M N O P Q R S T U V W X Y Z # 

Toronto Unabridged Tabs

(ver. 1) Click to play this song!
Silverstein
Tuning: standard

e|----------0---------------------------0-----------------------------0-----------------|
B|------------0----2p0---0h2--------------0----2p0---0h2p0--------------0----2p0---0h2--|
G|--------2------------2--------------2------------2-------2--------2------------2------| 
D|------4-------2-------------------4-------2---------------------4-------2-------------|
A|----4---------------------------4-----------------------------4-----------------------|
E|--2---------------------------2-----------------------------2-------------------------|

(the hammer-ons and pull-offs can also be played like this, but i don't like it. lol)

e|--------------------------------------------------------------------------------------|
B|-----0-----0--------0----------0-0-----0------0---------------------------------------|
G|-----6p4\2-4/6------6p4\2--4h6-4-2-----6h4\2--4/6-------------------------------------|
D|--------------------------------------------------------------------------------------|
A|--------------------------------------------------------------------------------------|
E|--------------------------------------------------------------------------=-----------|

e|--------------------------------------------------------------------------------------|
B|--------2-------2-------2-------2----------------------------------2------------------|
G|------2-------2-------2-------2----------------------------------2-----x2-------------|
D|----4-------4-------4-------4-------(then after first verse)---4----------------------|
A|--5-------5-------4-------4----------------------------------2------------------------|
E|--------------------------------------------------------------------------------------|
            
Submit corrections

↑ Back to top | Tablatures and chords for acoustic guitar and electric guitar, ukulele, drums are parodies/interpretations of the original songs. You may use it for private study, scholarship, research or language learning purposes only