Home » S » Silverstein »

Silverstein - A Midwestern State Of Emergency Bass

Artists:  A B C D E F G H I J K L M N O P Q R S T U V W X Y Z # 

A Midwestern State Of Emergency Bass

(ver. 1) Click to play this song!
Silverstein
Tuning: Drop C# (C# G# C# F#)


Intro (After guitars)
F#||-----------------------------------------------------|
C#||-----------------------------------------------------|
G#||--------5----------5-5-5-4\----6-5-----6--5----------|
C#||--0-5-8----8-7-5-0-----------------8-5-------8-5--4--| x2



Guitar 1:
F#||---------------------------------------|
C#||------------------~-/-5-5-5-5-5-5-5-5--|
G#||---------------------------------------|
C#||--5----5----5----5---------------------|



Verse
F#||------------------------------------------------------------------|
C#||------------------------------------------------------------------|
G#||------------------------------------------------------------------|
C#||--5---5-------5---5---------8----8--------10-10--------10----10---|
                                                                 
F#||------------------------------------------------------------------|
C#||------------------------------------------------------------------|
G#||------------------------------------------------------------------|
C#||--5---5-------5---5---------8----8--------10-10------1010--1010---|

F#||------------------------------------------------------------------|
C#||------------------------------------------------------------------|
G#||------------------------------------------------------------------|
C#||--5-5-5-5-5-5-5-5-5-5-5-5-5-8-8-8-8-8-8-8-10-10-10-10-10-10-10-10-| x2




Pre-Chorus
F#||--------------------------------|
C#||--------------------------------|
G#||--------------------------------|
C#||---------------------5---5---7--|


Chorus
F#||--------------------------------------------------------------------------------|
C#||--------------------------------------------------------------------------------|
G#||------------------------------------------------------------------------6---6---|
C#||--8---8---8-8---8---8-7---7---7-3---3---3-5---5---5-5---5---5-5---5---5---------| x2


F#||----------------------------|
C#||----------------------------|
G#||----------------------------|
C#||--8---8---8-8---10---12-7~--|



Verse

F#||------------------------------------------------------------------|
C#||------------------------------------------------------------------|
G#||------------------------------------------------------------------|
C#||--5---5~~~~~~~--------------------------------------------10-10---|

F#||------------------------------------------------------------------|
C#||------------------------------------------------------------------|
G#||------------------------------------------------------------------|
C#||--5---5-------5---5---------8----8--------10-10------1010--1010---|

F#||------------------------------------------------------------------|
C#||------------------------------------------------------------------|
G#||------------------------------------------------------------------|
C#||--5-5-5-5-5-5-5-5-5-5-5-5-5-8-8-8-8-8-8-8-10-10-10-10-10-10-10-10-| x2


Pre-Chorus
F#||--------------------------------|
C#||--------------------------------|
G#||--------------------------------|
C#||---------------------5---5---7--|

Chorus
F#||--------------------------------------------------------------------------------|
C#||--------------------------------------------------------------------------------|
G#||------------------------------------------------------------------------6---6---|
C#||--8---8---8-8---8---8-7---7---7-3---3---3-5---5---5-5---5---5-5---5---5---------| x3

Bridge
F#||-------------------------------------------------------|
C#||-------------------------------------------------------|
G#||-------------------------------------------------------|
C#||--8---8---8-8---10---12-7~-3~--5--5--5--5--5--5--5--5--|

F#||---------------------------------|
C#||/5-5-5-5-5-5-5-5-5-5-5-5-5-5-5-5-|
G#||---------------------------------|
C#||---------------------------------|


Breakdown

Just guitar…

Then
F#||-----------------------------------------------------|
C#||-----------------------------------------------------|
G#||--------5----------5-5-5-4\----6-5-----6--5----------|
C#||--0-5-8----8-7-5-0-----------------8-5-------8-5--4--| x2


F#||----------------------|
C#||----------------------|
G#||----------------------|
C#||--5~---5~---5~---13\--|

F#||-----------------------------------------------------|
C#||-----------------------------------------------------|
G#||--------5----------5-5-5-4\----6-5-----6--5----------|
C#||--0-5-8----8-7-5-0-----------------8-5-------8-5--4--| x2


Pre-Chorus
F#||--------------------------------|
C#||--------------------------------|
G#||--------------------------------|
C#||---------------------5---5---7--|

Pause for Drums

Chorus
F#||--------------------------------------------------------------------------------|
C#||--------------------------------------------------------------------------------|
G#||------------------------------------------------------------------------6---6---|
C#||--8---8---8-8---8---8-7---7---7-3---3---3-5---5---5-5---5---5-5---5---5---------| x3

Outro
F#||-----------------------------------------|
C#||-----------------------------------------|
G#||-----------------------------------------|
C#||--8---8---8-8---10---12-7~-3~--5~~~~~~~~~|
            
Submit corrections

↑ Back to top | Tablatures and chords for acoustic guitar and electric guitar, ukulele, drums are parodies/interpretations of the original songs. You may use it for private study, scholarship, research or language learning purposes only