» » »

Silverstein - Burn It Down Tabs

Artists:  A B C D E F G H I J K L M N O P Q R S T U V W X Y Z # 

Burn It Down Tabs

(ver. 1) Click to play this song!
Silverstein
 Rating:
4.2/5 (31 vote)

 Burn It Down lessons Tabs too difficult? Try these video lessons and learn fast
 
                [Intro]
Guitar 1:
D ||------------------------------------|
A ||------------------------------------|
F ||--9-9-9-9-9-9-9-9-9-9-9-9-9b9b9r9r--|
C ||--x-x-x-x-x-x-x-x-x-x-x-x-x-x-x-x---|
G ||--7-7-7-7-7-7-7-7-7-7-7-7-7-7-7-7---|
A#||------------------------------------|


Guitar 1:
D ||------------------------------------|
A ||------------------------------------|
F ||--9-9-9-9-9-9-9-9-9-9-9-9-----------|
C ||--x-x-x-x-x-x-x-x-x-x-x-x-----------|
G ||--7-7-7-7-7-7-7-7-7-7-7-7-----------|
A#||------------------------------------|


Guitar 2:
D ||------------------------------------|
A ||------------------------------------|
F ||------------------------------------|
C ||--9-9-9-9-9-9-9-9-9-9-9-9-----------|
G ||--7-7-7-7-7-7-7-7-7-7-7-7-----------|
A#||------------------------------------|



[Pre-Verse]
Guitar 1:
D ||-----------------------------------------------------------------------------------------|
A ||-----------------------------------------------------------------------------------------|
F ||--16-16-x--x--16\14----16-16-x--x--16\14----12-12-16-16-16-16-14-14-12-12-14-14-9-9-7-7--|
C ||--x--x--x--x--x-\x-----x--x--x--x--x-\x-----x--x--x--x--x--x--x--x--x--x--x--x--x-x-x-x--| [x2]
G ||--14-14-x--x--14\12----14-14-x--x--14\12----10-10-14-14-14-14-12-12-10-10-12-12-7-7-5-5--|
A#||-----------------------------------------------------------------------------------------|


Guitar 2:
D ||-------------------------------------------------------------------|
A ||-------------------------------------------------------------------|
F ||--2-2-2-2-2-2-2-2-----------------5-5-5-5-5-5-5-5-5-5-5-5-5-5-5-5--|
C ||--2-2-2-2-2-2-2-2-2-2-2-2-2-2-2-2-5-5-5-5-5-5-5-5-5-5-5-5-5-5-5-5--| [x2]
G ||--0-0-0-0-0-0-0-0-2-2-2-2-2-2-2-2-3-3-3-3-3-3-3-3-3-3-3-3-3-3-3-3--|
A#||------------------4-4-4-4-4-4-4-4----------------------------------|



[Verse]
Guitar 1:
D ||-------------------------------------------------------------------|
A ||-------------------------------------------------------------------|
F ||-------------------------------------------------------------------|
C ||--2-2-2-2-2-2-2-2-5-5-5-5-5-5-5-5----------------------------------|
G ||--0-0-0-0-0-0-0-0-3-3-3-3-3-3-3-3-2-2-2-2-2-2-2-2-2-2-2-2-2-2-2-2--|
A#||----------------------------------4-4-4-4-4-4-4-4-4-4-4-4-4-4-4-4--|
      . . . . . . . . . . . . . . . . . . . . . . . . . . . . .


Guitar 2:
D ||-------------------------------------------------------------------|
A ||-------------------------------------------------------------------|
F ||-------------------------------------------------------------------|
C ||-------------------------------------------------------------------|
G ||------------------------------------------------------------7-7-7--|
A#||------------------------------------------------------------4-4-4--|


Guitar 1/2:
D ||-------------------------------------------------------------------|
A ||-------------------------------------------------------------------|
F ||-------------------------------------------------------------------|
C ||--2-2-2-2-2-2-2-2-5-5-5-5-5-5-5-5----------------------------------|
G ||--0-0-0-0-0-0-0-0-3-3-3-3-3-3-3-3-2-2-2-2-2-2-2-2-2-2-2-2-2-2-2-2--|
A#||----------------------------------4-4-4-4-4-4-4-4-4-4-4-4-4-4-4-4--|
      . . . . . . . . . . . . . . . . . . . . . . . . . . . . .

Guitar 2:
D ||-------------------------------------------------------------------|
A ||-------------------------------------------------------------------|
F ||-------------------------------------------------------------------|
C ||-------------------------------------------------------------------|
G ||-------------------------------------------------------------------|
A#||-----------------------------------------------------------1//\\1--|



[Pre-Chorus]
Guitar 1:
D ||---------------------------------------------------|
A ||---------------------------------------------------|
F ||--14-14-14-14-14-14-14-14-17-17-17-17-17-17-17-17--|
C ||--x--x--x--x--x--x--x--x--x--x--x--x--x--x--x--x---|
G ||--12-12-12-12-12-12-12-12-15-15-15-15-15-15-15-15--|
A#||---------------------------------------------------|


Guitar 2:
D ||-----------------------------------|
A ||-----------------------------------|
F ||--2-2-2-2-2-2-2-2-5-5-5-5-5-5-5-5--|
C ||--2-2-2-2-2-2-2-2-5-5-5-5-5-5-5-5--|
G ||--0-0-0-0-0-0-0-0-3-3-3-3-3-3-3-3--|
A#||-----------------------------------|


Guitar 1/2:
D ||-----------------------------------|
A ||-----------------------------------|
F ||-----------------------------------|
C ||-----------------------------------|
G ||--2-2---2-2-2---2-5-5---5-5-5---5--|
A#||--4-4---4-4-4---4-7-7---7-7-7---7--|
      . .   . . .   . . .   . . .   .


Guitar 1:
D ||---------------------------------------------------|
A ||---------------------------------------------------|
F ||--14-14-14-14-14-14-14-14-17-17-17-17-17-17-17-17--|
C ||--x--x--x--x--x--x--x--x--x--x--x--x--x--x--x--x---|
G ||--12-12-12-12-12-12-12-12-15-15-15-15-15-15-15-15--|
A#||---------------------------------------------------|


Guitar 2:
D ||-----------------------------------|
A ||-----------------------------------|
F ||--2-2-2-2-2-2-2-2-5-5-5-5-5-5-5-5--|
C ||--2-2-2-2-2-2-2-2-5-5-5-5-5-5-5-5--|
G ||--0-0-0-0-0-0-0-0-3-3-3-3-3-3-3-3--|
A#||-----------------------------------|


Guitar 1/2:
D ||-----------------------------------|
A ||-----------------------------------|
F ||-----------------------------------|
C ||-----------------------------------|
G ||--2-2---2-2-2---2-2-2---2-2-2---2--|
A#||--4-4---4-4-4---4-4-4---4-4-4---4--|
      . .   . . .   . . .   . . .   .



[Chorus]
Guitar 1/2:
D ||-------------------------------------------------------------------|
A ||-------------------------------------------------------------------|
F ||--2-2-2-2-2-2-2-2-----------------5-5-5-5-5-5-5-5-5-5-5-5-5--------|
C ||--2-2-2-2-2-2-2-2-2-2-2-2-2-2-2-2-5-5-5-5-5-5-5-5-5-5-5-5-5-5-5-5--|
G ||--0-0-0-0-0-0-0-0-2-2-2-2-2-2-2-2-3-3-3-3-3-3-3-3-3-3-3-3-3-5-5-5--|
A#||------------------4-4-4-4-4-4-4-4---------------------------7-7-7--|


D ||-------------------------------------------------------------------|
A ||-------------------------------------------------------------------|
F ||--2-2-2-2-2-2-2-2-----------------5-5-5-5-5-5-5-5-5-5-5-5-5-5-5-5--|
C ||--2-2-2-2-2-2-2-2-2-2-2-2-2-2-2-2-5-5-5-5-5-5-5-5-5-5-5-5-5-5-5-5--|
G ||--0-0-0-0-0-0-0-0-2-2-2-2-2-2-2-2-3-3-3-3-3-3-3-3-3-3-3-3-3-3-3-3--|
A#||------------------4-4-4-4-4-4-4-4----------------------------------|


D ||---------------------------------------------------------------|
A ||---------------------------------------------------------------|
F ||--2-2-2-2-----------------------5-5-5-5---------5-5---5-5-5-5--|
C ||--2-2-2-2-----------------------5-5-5-5---------5-5---5-5-5-5--|
G ||--0-0-0-0---------7-7---7-7~--7-3-3-3-3---------3-3---3-3-3-3--|
A#||------------------4-4---4-4~--4--------------------------------|


D ||---------------------------------------------------------------|
A ||---------------------------------------------------------------|
F ||--2-2-2-2-----------------------5-5-5-5-(17~)---5-5---5-5-5-5--|
C ||--2-2-2-2-----------------------5-5-5-5-(x--)---5-5---5-5-5-5--|
G ||--0-0-0-0---------7-7---7-7~--7-3-3-3-3-(15~)---3-3---3-3-3-3--|
A#||------------------4-4---4-4~--4--------------------------------|



[Verse]
Guitar 1:
D ||-------------------------------------------------------------------|
A ||-------------------------------------------------------------------|
F ||-------------------------------------------------------------------|
C ||-------------------------------------------------------------------|
G ||------------------------------------------------------------2-2-2--|
A#||------------------------------------------------------------4-4-4--|


Guitar 2:
D ||-------------------------------------------------------------------|
A ||-------------------------------------------------------------------|
F ||-------------------------------------------------------------------|
C ||-------------------------------------------------------------------|
G ||------------------------------------------------------------7-7-7--|
A#||------------------------------------------------------------4-4-4--|


Guitar 1/2:
D ||-------------------------------------------------------------------|
A ||-------------------------------------------------------------------|
F ||-------------------------------------------------------------------|
C ||--2-2-2-2-2-2-2-2-5-5-5-5-5-5-5-5----------------------------------|
G ||--0-0-0-0-0-0-0-0-3-3-3-3-3-3-3-3-2-2-2-2-2-2-2-2-2-2-2-2-2-2-2-2--|
A#||----------------------------------4-4-4-4-4-4-4-4-4-4-4-4-4-4-4-4--|
      . . . . . . . . . . . . . . . . . . . . . . . . . . . . .

Guitar 2:
D ||-------------------------------------------------------------------|
A ||-------------------------------------------------------------------|
F ||-------------------------------------------------------------------|
C ||-------------------------------------------------------------------|
G ||-------------------------------------------------------------------|
A#||-----------------------------------------------------------1//\\1--|



[Pre-Chorus]
Guitar 1:
D ||---------------------------------------------------|
A ||---------------------------------------------------|
F ||--14-14-14-14-14-14-14-14-17-17-17-17-17-17-17-17--|
C ||--x--x--x--x--x--x--x--x--x--x--x--x--x--x--x--x---|
G ||--12-12-12-12-12-12-12-12-15-15-15-15-15-15-15-15--|
A#||---------------------------------------------------|


Guitar 2:
D ||-----------------------------------|
A ||-----------------------------------|
F ||--2-2-2-2-2-2-2-2-5-5-5-5-5-5-5-5--|
C ||--2-2-2-2-2-2-2-2-5-5-5-5-5-5-5-5--|
G ||--0-0-0-0-0-0-0-0-3-3-3-3-3-3-3-3--|
A#||-----------------------------------|


Guitar 1/2:
D ||-----------------------------------|
A ||-----------------------------------|
F ||-----------------------------------|
C ||-----------------------------------|
G ||--2-2---2-2-2---2-5-5---5-5-5---5--|
A#||--4-4---4-4-4---4-7-7---7-7-7---7--|
      . .   . . .   . . .   . . .   .


Guitar 1:
D ||---------------------------------------------------|
A ||---------------------------------------------------|
F ||--14-14-14-14-14-14-14-14-17-17-17-17-17-17-17-17--|
C ||--x--x--x--x--x--x--x--x--x--x--x--x--x--x--x--x---|
G ||--12-12-12-12-12-12-12-12-15-15-15-15-15-15-15-15--|
A#||---------------------------------------------------|


Guitar 2:
D ||-----------------------------------|
A ||-----------------------------------|
F ||--2-2-2-2-2-2-2-2-5-5-5-5-5-5-5-5--|
C ||--2-2-2-2-2-2-2-2-5-5-5-5-5-5-5-5--|
G ||--0-0-0-0-0-0-0-0-3-3-3-3-3-3-3-3--|
A#||-----------------------------------|


Guitar 1/2:
D ||-----------------------------------|
A ||-----------------------------------|
F ||-----------------------------------|
C ||-----------------------------------|
G ||--2-2---2-2-2---2-2----------------|
A#||--4-4---4-4-4---4-4----------------|
      . .   . . .   . .



[Chorus]
Guitar 1/2:
D ||-------------------------------------------------------------------|
A ||-------------------------------------------------------------------|
F ||--2-2-2-2-2-2-2-2-----------------5-5-5-5-5-5-5-5-5-5-5-5-5--------|
C ||--2-2-2-2-2-2-2-2-2-2-2-2-2-2-2-2-5-5-5-5-5-5-5-5-5-5-5-5-5-5-5-5--|
G ||--0-0-0-0-0-0-0-0-2-2-2-2-2-2-2-2-3-3-3-3-3-3-3-3-3-3-3-3-3-5-5-5--|
A#||------------------4-4-4-4-4-4-4-4---------------------------7-7-7--|


D ||-------------------------------------------------------------------|
A ||-------------------------------------------------------------------|
F ||--2-2-2-2-2-2-2-2-----------------5-5-5-5-5-5-5-5-5-5-5-5----------|
C ||--2-2-2-2-2-2-2-2-2-2-2-2-2-2-2-2-5-5-5-5-5-5-5-5-5-5-5-5----------|
G ||--0-0-0-0-0-0-0-0-2-2-2-2-2-2-2-2-3-3-3-3-3-3-3-3-3-3-3-3----------|
A#||------------------4-4-4-4-4-4-4-4----------------------------------|


D ||---------------------------------------------------------------|
A ||---------------------------------------------------------------|
F ||--2-2-2-2-----------------------5-5-5-5---------5-5---5-5-5-5--|
C ||--2-2-2-2-----------------------5-5-5-5---------5-5---5-5-5-5--|
G ||--0-0-0-0---------7-7---7-7~--7-3-3-3-3---------3-3---3-3-3-3--|
A#||------------------4-4---4-4~--4--------------------------------|


D ||---------------------------------------------------------------|
A ||---------------------------------------------------------------|
F ||--2-2-2-2-----------------------5-5-5-5-5~------5-5---5-5-5-5--|
C ||--2-2-2-2-----------------------5-5-5-5-5~------5-5---5-5-5-5--|
G ||--0-0-0-0---------7-7---7-7~--7-3-3-3-3-3~------3-3---3-3-3-3--|
A#||------------------4-4---4-4~--4--------------------------------|


Guitar 1:
D ||---------------------------------------------------|
A ||---------------------------------------------------|
F ||--17-17-17-16-16-16-16----21-21----20----20----21--|
C ||--x--x--x--x--x--x--x-----x--x-----x-----x-----x---|
G ||--15-15-15-14-14-14-14----19-19----18----18----19--|
A#||---------------------------------------------------|


Guitar 2:
D ||--------------------------------------|
A ||--------------------------------------|
F ||--5-5-5-5-5-5-5---5-5----5----5-------|
C ||--5-5-5-5-5-5-5---5-5----5----5----2--|
G ||--3-3-3-3-3-3-3---3-3----3----3----2--|
A#||-----------------------------------4--|



[Bridge]
Guitar 1 (Alternating Bends on F String):
D ||-------------------------------------------------------------------|
A ||-------------------------------------------------------------------|
F ||--9-9-9-9-9-9-9-9-9-9-9-9-9-9-9-9-9-9-9-9-9-9-9-9-9-9-9-9-9-9-9-9--|
C ||--x-x-x-x-x-x-x-x-x-x-x-x-x-x-x-x-x-x-x-x-x-x-x-x-x-x-x-x-x-x-x-x--|
G ||--7-7-7-7-7-7-7-7-7-7-7-7-7-7-7-7-7-7-7-7-7-7-7-7-7-7-7-7-7-7-7-7--|
A#||-------------------------------------------------------------------|


D ||-------------------------------------------------------------------|
A ||-------------------------------------------------------------------|
F ||--9-9-9-9-9-9-9-9-9-9-9-9-9-9-9-9-9-9-9-9-9-9~---------------------|
C ||--x-x-x-x-x-x-x-x-x-x-x-x-x-x-x-x-x-x-x-x-x-x-----------------x-x--|
G ||--7-7-7-7-7-7-7-7-7-7-7-7-7-7-7-7-7-7-7-7-7-7~----------------x-x--|
A#||--------------------------------------------------------------x-x--|


Guitar 2:
D ||--------------------------------------------|
A ||--------------------------------------------|
F ||--------------------------------------------|
C ||--------------------------------------------|
G ||--------------------------------------------|
A#||--4--------4---4------------4--------4---2--|


D ||--------------------------------------------|
A ||--------------------------------------------|
F ||--------------------------------------------|
C ||----------------------------2~---------x-x--|
G ||----------------------------2~---------x-x--|
A#||--4--------4---4------------4~---------x-x--|



[Breakdown]
Guitar 1/2:
D ||---------------------------------------------------------------|
A ||---------------------------------------------------------------|
F ||--9-9-9-9-----9-9-9-9-----9------9-9-9-9-----9-9-9-9-----10----|
C ||--x-x-x-x-----x-x-x-x-----x------x-x-x-x-----x-x-x-x-----x-----|
G ||--7-7-7-7-----7-7-7-7-----7------7-7-7-7-----7-7-7-7-----8-----|
A#||----------4-----------4-----4------------4-----------4------2--|


D ||---------------------------------------------------------|
A ||---------------------------------------------------------|
F ||--9-9-9-9-----9-9-9-9-----9------------------------------|
C ||--x-x-x-x-----x-x-x-x-----x--------2------0-3-0---0------|
G ||--7-7-7-7-----7-7-7-7-----7--------2------0-3-0---0------|
A#||----------4-----------4-----4----2-4------2-5-2---2---2--|
                                                          .

Guitar 1:
D ||------|
A ||------|
F ||------|
C ||--3---|
G ||--3---|
A#||--5---|


Guitar 2:
D ||------|
A ||------|
F ||--'3--|
C ||------|
G ||------|
A#||------|


Guitar 1/2:
D ||---------------------------------------------------------------|
A ||---------------------------------------------------------------|
F ||--9-9-9-9-----9-9-9-9-----9------9-9-9-9-----9-9-9-9-----10----|
C ||--x-x-x-x-----x-x-x-x-----x------x-x-x-x-----x-x-x-x-----x-----|
G ||--7-7-7-7-----7-7-7-7-----7------7-7-7-7-----7-7-7-7-----8-----|
A#||----------4-----------4-----4------------4-----------4------2--|


D ||---------------------------------------------------------|
A ||---------------------------------------------------------|
F ||--9-9-9-9-----9-9-9-9-----9------------------------------|
C ||--x-x-x-x-----x-x-x-x-----x--------2------0-3-0---0------|
G ||--7-7-7-7-----7-7-7-7-----7--------2------0-3-0---0------|
A#||----------4-----------4-----4----2-4------2-5-2---2---2--|
                                                          .

Guitar 1:
D ||------|
A ||------|
F ||------|
C ||--3---|
G ||--3---|
A#||--5---|


Guitar 2:
D ||------|
A ||------|
F ||--'3--|
C ||------|
G ||------|
A#||------|



[Pre-Chorus]
Guitar 1:
D ||---------------------------------------------------|
A ||---------------------------------------------------|
F ||--9-9-9-9-9-9-9-9-9-9-9-9-9-9-9-9-9-9-9-9-9-9-9-9--|
C ||--x-x-x-x-x-x-x-x-x-x-x-x-x-x-x-x-x-x-x-x-x-x-x-x--|
G ||--7-7-7-7-7-7-7-7-7-7-7-7-7-7-7-7-7-7-7-7-7-7-7-7--|
A#||---------------------------------------------------|


Guitar 2:
D ||---------------------------------------------------|
A ||---------------------------------------------------|
F ||---------------------------------------------------|
C ||--9-9-9-9-9-9-9-9-9-9-9-9-9-9-9-9-9-9-9-9-9-9-9-9--|
G ||--7-7-7-7-7-7-7-7-7-7-7-7-7-7-7-7-7-7-7-7-7-7-7-7--|
A#||---------------------------------------------------|



[Chorus / Outro]
Guitar 1/2:
D ||-------------------------------------------------------------------|
A ||-------------------------------------------------------------------|
F ||--2-2-2-2-2-2-2-2-----------------5-5-5-5-5-5-5-5-5-5-5-5-5--------|
C ||--2-2-2-2-2-2-2-2-2-2-2-2-2-2-2-2-5-5-5-5-5-5-5-5-5-5-5-5-5-5-5-5--|
G ||--0-0-0-0-0-0-0-0-2-2-2-2-2-2-2-2-3-3-3-3-3-3-3-3-3-3-3-3-3-5-5-5--|
A#||------------------4-4-4-4-4-4-4-4---------------------------7-7-7--|


D ||-------------------------------------------------------------------|
A ||-------------------------------------------------------------------|
F ||--2-2-2-2-2-2-2-2-----------------5-5-5-5-5-5-5-5-5-5-5-5-5-5-5-5--|
C ||--2-2-2-2-2-2-2-2-2-2-2-2-2-2-2-2-5-5-5-5-5-5-5-5-5-5-5-5-5-5-5-5--|
G ||--0-0-0-0-0-0-0-0-2-2-2-2-2-2-2-2-3-3-3-3-3-3-3-3-3-3-3-3-3-3-3-3--|
A#||------------------4-4-4-4-4-4-4-4----------------------------------|


D ||--------------------------------------------------------------|
A ||--------------------------------------------------------------|
F ||--------2-----------------------5-5-5----5-----5-5---5-5-5-5--|
C ||--------2-----------------------5-5-5----5-----5-5---5-5-5-5--|
G ||--------0---------7-7---7-7~--7-3-3-3----3-----3-3---3-3-3-3--|
A#||------------------4-4---4-4~--4-------------------------------|


D ||--------------------------------------------------------------|
A ||--------------------------------------------------------------|
F ||--------2-2---------------------5-5-5----5-----5-5---5-5-5-5--|
C ||--------2-2---------------------5-5-5----5-----5-5---5-5-5-5--|
G ||--------0-0-------7-7---7-7~--7-3-3-3----3-----3-3---3-3-3-3--|
A#||------------------4-4---4-4~--4-------------------------------|


D ||------------------------------|
A ||------------------------------|
F ||--5-5-5----5-----5-5---5---5--|
C ||--5-5-5----5-----5-5---5---5--|
G ||--3-3-3----3-----3-3---3---3--|
A#||------------------------------|


Guitar 1:
D ||-----|
A ||-----|
F ||-----|
C ||--2--|
G ||--2--|
A#||--4--|


Guitar 2:
D ||-----|
A ||-----|
F ||-----|
C ||-----|
G ||--7--|
A#||--4--|

            
Submit corrections


        Burn It Down lessons Hard to play? Try these video lessons and learn fast Burn It Down lessons
        
↑ Back to top | Tablatures and chords for acoustic guitar and electric guitar, ukulele, drums are parodies/interpretations of the original songs. You may use it for private study, scholarship, research or language learning purposes only