Home » S » Silverchair »

Silverchair - Tomorrow Tabs

Artists:  A B C D E F G H I J K L M N O P Q R S T U V W X Y Z # 

Tomorrow Tabs
Version #3
Silverchair


Copy URL

**Key** 
h-hammer on 
/-slide 
p-pull off 
^-bend 
____ - bend up and back to original note 

~~~-vibrato 

**Tuning**  Standard (EADGBE) 



intro (Clean) 
E|-------0----------------0---------------3p2--------------------------| 
B|---------2------2----------2-----------------3-----------------------| 
G|-------------2--2--------------0----2------------2-----0-----0-----0-| 
D|---2-------2----2---2--------2----0---0--------0-----2-----0-----2---| 
A|-0---0----------0-----0----------------------------3-----2-----3-----| 
E|---------------------------------------------------------------------| 

Verse (with variation...basically strum the A freehand) 
A                        G     D    
E|-----------------------------3-0-------------- 
B|------------------2---0--3---3-3--3-0--------- 
G|-2---2-2----------2---0--0---0-0--2-0--------- 
D|-2---2-2----2---------0--0---0-0--0-0--2------ 
A|-0---0-0--0-0--0----0h2--2---2---------3p0-2-- 
E|-------------------------3---3-------------3-- 
(Before pre-chorus hit distortion on the D) 

Pre-Chorus 
E|----------------------------------------------------| 
B|----------------------------------------------------| 
G|-2---2-------2-2--x-x-4---4--x-x-5--5---------5p0---| 
D|-2---2-------2-2--x-x-4---4--x-x-5--5-----5h7-------|  
A|-0---0--0-0--0-0--x-x-2---2--x-x-3--3-5h7-----------|  
E|----------------------2---2--x-x-3--3---------------| 
        P M 

Interlude 
E-5-5--x-x-10--10--12p10-----------------8--8--8--x-x-10--10-12p10------------ 
B-5-5--x-x-10--10--------10-12p10--------8-----8--x-x-10--10-------10-12p10--- 
G-6----x-x-11---------------------11\9---9--------x-x-11-------------------11\ 
D-7--------12---------------------12\10--10-----------12-------------------12\ 
A----------------------------------------------------------------------------- 
E----------------------------------------------------------------------------- 

Chorus 
 A5          Dsus2/A          Csus2/G  Dsus2/A 
E|--------------------------------------------------| 
B|------------------------------------x--5-5--5-5-5-| 
G|-2---2--x-x--7--7-7--7-7-7-7--5-5-x-x--7-7--7-7-7-| 
D|-2---2--x-x--7--7-7--7-7-7-7--5-5-x-x--7-7--7-7-7-| 
A|-0---0--x-x--5--5-5--5-5-5-5--3-3-x----5-5--5-5-5-| 
E|-------------5--5-5--5-5-5-5--3-3------5-5--5-5-5-| 

2nd Chorus 
play normal chorus, then play A, Dsus2/A, Csus2/G as you would normally play 
the chorus but when you end on Csus2/G go to this riff 
E|----------------------------| 
A|-3-3-3-3--5-5-5-5--5-5------| 
D|-5-5-5-5--7-7-7-7--7-7------| 
G|-5-5-5-5--7-7-7-7--7-7--x-x-| 
B|-3-3-3-3--5-5-5-5--5-5--x-x-| 
E|-3-3-3-3--5-5-5-5--5-5--x-x-| 

Solo (from book) 
        PM  ~~~~~~~~~ 
--------------------------------------- 
--5^(1/4)----------------------------5- 
--5^(1/2)----------------------5--7--5- 
----------7--5--7-----------7---------- 
--------------------------------------- 
--------------------------------------- 

             _________            _________  _________________________ 
-----------8-7^(1/4)-7---------------------------------------------------- 
--7^(full)---7^(1/2)-7p5--7(full)-7(full)-7--7(full)-7(full)-7(full)7--5h7 

          ~~~~                         ~~~ 
-------------------------------------------------- 
-------------------------------------------------- 
-7^(full)-7-----5h7--5^(1/2)-----5---------------- 
------------------------------7--5--7--7---5h7---- 
-------------------------------------------------- 
-------------------------------------------------- 

                     ~~~~~~~~ 
------------------------------------------------- 
------------------------------------------------- 
---------------5-------------------------------
            
Submit corrections

↑ Back to top | Tablatures and chords for acoustic guitar and electric guitar, ukulele, drums are parodies/interpretations of the original songs. You may use it for private study, scholarship, research or language learning purposes only