Home » S » Silverchair »

Silverchair - Shade Tabs

Artists:  A B C D E F G H I J K L M N O P Q R S T U V W X Y Z # 

Shade Tabs

(Version #1)
Silverchair
SHADE by silverchair


Chords required:

    Am  Bm  Bb6  C6  D6
E---0---2----1---3---5-------|
B---1---3----1---3---5-------|
G---2---4----3---5---7-------|
D---2---4----3---5---7-------|
A---0---2----1---3---5-------|
E----------------------------|

Introduction:

D  C6  /  C  Am  Bm  x 3
D  C6  C6____			_ = hold


"Verse Baseline" played after every hold on C or C6:

E-----------------------------------------------|
B-----------------------------------------------|
G-----------------------------------------------|
D-----------------------------------------------|
A----3--3--0----3^---0---(3)---5----------------|
E-----------------------------------------------|
	^ = bend	       *  D C6 
then chorus, which becomes subject to distortion


Braamo
            
Submit corrections

↑ Back to top | Tablatures and chords for acoustic guitar and electric guitar, ukulele, drums are parodies/interpretations of the original songs. You may use it for private study, scholarship, research or language learning purposes only