Home » S » Silverchair »

Silverchair - Israel's Son Tabs

Artists:  A B C D E F G H I J K L M N O P Q R S T U V W X Y Z # 

Israel's Son Tabs

(ver. 1) Click to play this song!
Silverchair
ISREALS SON by silverchair

drop d tunning.

(0) = parm mute
 \  = slide
intro....

E----------------------------------
B----------------------------------
G----------------------------------
D----------------------------------
A---(0)--(0)--------3------------5-
D---(0)--(0)---3\5-------0--3\5----

chorus.....

E-------------------------------   
B-------------------------------   
G-------------------------------   
D--(0)--(0)--5--3-----0--2--3---  x 3 
A--(0)--(0)--5--3-----0--2--3---   
D--(0)--(0)--5--3-----0--2--3---   

E------------------------------
B------------------------------
G------------------------------
D--1--1--1--1-----6--6--6--6---
A--1--1--1--1-----6--6--6--6---
D--1--1--1--1-----6--6--6--6---

end bit..... 

E--------------------------------------
B--------------------------------------
G--------------------------------------
D-------------------------------------- x 3 
A---(0)--(0)---5\3-----------3---------
D---(0)--(0)---5\3---0h3--5-----5------

E--------------------------------------
B--------------------------------------
G--------------------------------------
D-------------------------------------- 
A---(0)--(0)---5\3-----------2h3p2-----
D---(0)--(0)---5\3---0h3--5---------5--

as it gets faster , he stops muting the first two notes of that end bit..

enjoy...

Chris.
            
Submit corrections

↑ Back to top | Tablatures and chords for acoustic guitar and electric guitar, ukulele, drums are parodies/interpretations of the original songs. You may use it for private study, scholarship, research or language learning purposes only