Home » S » Silbermond »

Silbermond - Irgendwas Bleibt Tabs

Artists:  A B C D E F G H I J K L M N O P Q R S T U V W X Y Z # 

Irgendwas Bleibt Tabs

(ver. 2) Click to play this song!
Silbermond
-------------------------------------------------------------------------------
			     Irgendwas das bleibt - Silbermond
-------------------------------------------------------------------------------

Tuning: Standard

INTRO:
e|--------------------------------|
B|--------------------------------|
G|---9---9---9---11---------------|
D|---9---9---9---11---6---7-------|
A|---7---6---7---9----6---7-------|
E|--------------------4---5-------|

    At the first verse play each power chord eight times  and the last one (B) just one 
but longer (a White)

e|-------------------------------------|
B|---------------------------4---2-----|
G|---9---9---9---11----------6---4-----|
D|---9---9---9---11--7---7---6---4-----|
A|---7---6---7---9---7---7---4---2-----|
E|-------------------5---4-------------| x(2)

Here comes the Chorus ;-)Here the same, eight times, or how do you guys want to play but 
the song this is the way that actually sounds.

Part 1
e|-------------------------------------|
B|-----------4-------------------------|
G|---9---9---6--------------------9----|
D|---9---9---6---4---6---7---11---9----|
A|---7---6---4---4---6---7---11---7----|
E|---------------2---4---5---9---------|
Part2
At the end of chorus comes this little changes.
e|-------------------------------------------|
B|-----------4--------------------4---2------|
G|---9---9---6--------------------6---4------|
D|---9---9---6---4---6---7---11---6---4---7--|
A|---7---6---4---4---6---7---11---4---2---7--|
E|---------------2---4---5---9------------5--|

Bridge			  .Auch wenn die Welt den Verstand verliert…….
			   Das hier bleibt unberührt….

e|--------------------------------|
B|--------------------------------|
G|---9---9---9---11---------------|
D|---9---9---9---11---6---7-------|
A|---7---6---7---9----6---7-------|
E|--------------------4---5-------|

………….nichts passiert.
e|--------------------------------|
B|--------------------------------|
G|---9---11--------------9--------|
D|---9---11--6---7---9---9--------|
A|---7---9---6---7---9---7--------|
E|-----------4---5---7------------|

The next chorus goes with the same chords of the 2 part of the bridge.. meaning this

e|--------------------------------|
B|--------------------------------|
G|---9---11--------------9--------|
D|---9---11--6---7---9---9--------|
A|---7---9---6---7---9---7--------|
E|-----------4---5---7------------|

Then, the last part of the song is the Part2 of the chorus.. Meaning this

Part2
e|-------------------------------------------|
B|-----------4--------------------4---2------|
G|---9---9---6--------------------6---4------|
D|---9---9---6---4---6---7---11---6---4---7--|
A|---7---6---4---4---6---7---11---4---2---7--|
E|---------------2---4---5---9------------5--|

I hope you guys like it, and well, this is my first “TAB” and I hope I did everything 
it’s kind of hard to put each number in the right place, and takes a lot of time too^^, at 
for me.
Enjoy
            
Submit corrections

↑ Back to top | Tablatures and chords for acoustic guitar and electric guitar, ukulele, drums are parodies/interpretations of the original songs. You may use it for private study, scholarship, research or language learning purposes only