Home » S » Silbermond »

Silbermond - Irgendwas Bleibt Bass

Artists:  A B C D E F G H I J K L M N O P Q R S T U V W X Y Z # 

Irgendwas Bleibt Bass

(ver. 1) Click to play this song!
Silbermond
Intro (Bass comes in after 2 bars)
G|-----------------|-----------------|-1-----1-2-----2-|-----------------|
D|-2-------2-------|-4-------4-------|-----------------|-2-------2-------|
A|-----------------|-----------------|-----------------|-----------------|
E|-----------------|-----------------|-----------------|-----------------|
B|-----------------|-----------------|-----------------|-----------------|
 
G|-----------------|-----------------|-1-----1-2-----2-|-----------------|
D|-2-------2-------|-4-------4-------|-----------------|-2-------2-------|
A|-----------------|-----------------|-----------------|-----------------|
E|-----------------|-----------------|-----------------|-----------------|
B|-----------------|-----------------|-----------------|-----------------|

Verse 1 (No Bass here)

Verse 2
G|-----------------|-----------------|-----------------|-----------------|
D|-----------------|-----------------|-----------------|-----------------|
A|-7-7-7-7-7-7-7-7-|-6-6-6-6-6-6-6-6-|-7-7-7-7-7-7-7-7-|-9-9-9-9-9-9-9-9-|
E|-----------------|-----------------|-----------------|-----------------|
B|-----------------|-----------------|-----------------|-----------------|

G|-----------------|-----------------|-----------------|-----------------|
D|-----------------|-----------------|-----------------|-----------------|
A|-1212121212121212|-11111111111111\-|-----------------|-----------------|
E|-----------------|-----------------|-9-9-9-9-9-9-9-9-|-7--------------\|
B|-----------------|-----------------|-----------------|-----------------|

Chorus
G|-----------------|-----------------|-----------------|-----------------|
D|-----------------|-----------------|-----------------|-----------------|
A|-----------------|-----------------|-----------------|-----------------|
E|-0-0-0-0-0-0-0-0-|-----------------|-----------------|-2-2-2-2-2-2-2-2-|
B|-----------------|-4-4-4-4-4-4-4-4-|-2-2-2-2-2-2-2-2-|-----------------|

G|-----------------|-----------------|-----------------|-----------------|
D|-----------------|-----------------|-----------------|-----------------|
A|-----------------|-----------------|-----------------|-----------------|
E|-4-4-4-4-5-5-5-5-|-7-7-7-7-7-7-7-7-|-0-0-0-0-0-0-0-0-|-0-0-0-0-0-0-0-0-|
B|-----------------|-----------------|-----------------|-----------------|

G|-----------------|-----------------|-----------------|-----------------|
D|-----------------|-----------------|-----------------|-----------------|
A|-----------------|-----------------|-----------------|-----------------|
E|-0-0-0-0-0-0-0-0-|-----------------|-----------------|-2-2-2-2-2-2-2-2-|
B|-----------------|-4-4-4-4-4-4-4-4-|-2-2-2-2-2-2-2-2-|-----------------|

G|-----------------|-----------------|-----------------|-----------------|
D|-----------------|-----------------|-----------------|-----------------|
A|-----------------|-----------------|-----------------|-----------------|
E|-4-4-4-4-5-5-5-5-|-7-7-7-7-7-7-7-7-|-9-9-9-9-7-7-7-7-|-5---------------|
B|-----------------|-----------------|-----------------|-----------------|

G|-----------------|-----------------|-----------------|-----------------|
D|-----------------|-----------------|-----------------|-----------------|
A|-----------------|-rest 4 bars-----|-----------------|-----------------|
E|-(5)-------------|-----------------|-----------------|-----------------|
B|-----------------|-----------------|-----------------|-----------------|

Bridge
G|-----------------|-----------------|-----------------|------------------|
D|-----------------|-----------------|-----------------|------------------|
A|-9---------------|(9)--------------|-11--------------|-(11)-------------|
E|-----------------|-----------------|-----------------|------------------|
B|-----------------|-----------------|-----------------|------------------|
                                                                                         
G|-----------------|-----------------|-----------------|------------------|
D|-----------------|-----------------|-----------------|------------------|
A|-1212121212121212|-1212121212121212|11h12121212121212|-1212121212121212\|
E|-----------------|-----------------|-----------------|------------------|
B|-----------------|-----------------|-----------------|------------------|

G|-----------------|-----------------|-----------------|-----------------|
D|-----------------|-----------------|-----------------|-----------------|
A|-----------------|-----------------|-----------------|-----------------|
E|-----------------|-----------------|-----------------|-----------------|
B|-0-0-0-0-0-0-0-0-|-5-5-5-5-5-5-5-5-|-7-7-7-7-7-7-7-7-|-7-7-7-7-7-7-7-7-|

G|-----------------|-----------------|-----------------|-----------------|
D|-----------------|-----------------|-----------------|-----------------|
A|-----------------|-----------------|-----------------|-----------------|
E|-----------------|-----------------|-0-0-0-0-0-0-0-0-|-0-0-0-0/12121212|
B|-9-9-9-9-10101010|-1212121212121212|-----------------|-----------------|

Chorus 3
G|-----------------|-----------------|-----------------|-----------------|
D|-----------------|-----------------|-----------------|-----------------|
A|-----------------|-----------------|-----------------|-----------------|
E|-0-0-0-0-0-0-0-0-|-0-0-0-0-0-0-0-0-|-2-2-2-2-2-2-2-2-|-2-2-2-2-2-2-2-2-|
B|-----------------|-----------------|-----------------|-----------------|

G|-----------------|-----------------|-----------------|-----------------|
D|-----------------|-----------------|-----------------|-----------------|
A|-----------------|-----------------|-----------------|-----------------|
E|-4-4-4-4-5-5-5-5-|-7-7-7-7-7-7-7-7-|-1212121212121212|-1212121212121212|
B|-----------------|-----------------|-----------------|-----------------|

 End on 
G|-----------------|
D|-----------------|
A|-----------------|
E|-12--------------|
B|-----------------|
            
Submit corrections

↑ Back to top | Tablatures and chords for acoustic guitar and electric guitar, ukulele, drums are parodies/interpretations of the original songs. You may use it for private study, scholarship, research or language learning purposes only