Home » S » Shinedown »

Shinedown - Save Me Tabs

Artists:  A B C D E F G H I J K L M N O P Q R S T U V W X Y Z # 

Save Me Tabs

(ver. 1) Click to play this song!
Shinedown
===========================================================================
First of all, this is a great song, and 2nd, the guitar sounds overlap in
some places, and the rythm is in the back on the solo or two guitars, but
I play it that way... alone ! snif... Ok.            
Oh...And for those of you who know's how to play the violin, sounds like
this solo would be easier with that wood...  What a nice run !
Have fun :) Here's how I ear it.
===========================================================================

Shinedown - Save Me
===============================
Title     : Save Me
Band      : Shinedown
Tuning    : Drop D |DADGBe|
===============================

---------------------------------------------------------------------------

(slightly distorted)
e|----------------|----------------|    |----------------|----------------|
B|----------------|----------------|    |----------------|----------------|
G|----------------|----------------|    |---6br----------|---6br--4--3----|
D|----------------|----------------|    |------7---------|------7---------|
A|----------------|----------------|    |----------------|----------------|
D|----------------|----------------|    |----------------|----------------|

----------------------------------------------------------------------

e|----------------|----------------|    |----------------|----------------|
B|0---------------|----------------|    |---0-------5----|---2----0--2----|
G|4----------6br--|--------4--3----|X2  |--4-------7-----|--2-----4--3----|
D|4-------------7-|----------------|    |-4-------7------|-2------5--4----|
A|2---------------|----------------|    |2-------5-------|0-------5--4----|
D|----------------|----------------|    |----------------|----------------|
     I've got a candle...                   And under the window seal...
     I live in a ...

---------------------------------------------------------------------------

(play that part a little harder, in crescendo)           
e|--------------------------------|
B|--------------------------------|
G|44444444777777776666666644443333|
D|44444444777777776666666644443333|
A|22222222555555554444444422221111|
D|--------------------------------|
  A touch of concrete...

---------------------------------------------------------------------------

STEP ON IT HERE (full distortion)
e|--------------------------------|
B|--------------------------------|
G|44444444------------------------|X2 
D|44444444444444447777777755554444|
A|22222222444444447777777755554444|             
D|--------444444447777777755554444|             
  Someone save me if you will...
  And please just save me...

---------------------------------------------------------------------------

     (back to sligh distortion)
e|---------------|--------3--2---|-|  |----------------|---------------|
B|---------------|--------3--2---|-|  |----------------|---------------|
G|4--6br---------|---6br--4--3---|4|  |-----------6br--|-------4--3----|X2
D|4-----7--------|------7-5--4---|4|  |--------------7-|---------------|
A|2--------------|4-------5--4---|2|  |----------------|---------------|
D|---------------|---------------|-|  |----------------|---------------|
                                            How did I get here...
                                            Couldn't handle forgiveness...

---------------------------------------------------------------------------

                                      (Crescendo here)
e|--------------------------------|  |--------------------------------|
B|--------------------------------|  |--------------------------------|
G|4444444477777777----------------|  |44444444777777776666666644443333|
D|44444444777777777777777755544444|  |44444444777777776666666644443333|
A|22222222555555557777777755544444|  |22222222555555554444444422221111|
D|----------------7777777755544444|  |--------------------------------|
  And I can hardly remember...        How could I love this...

---------------------------------------------------------------------------

BACK ON (full distortion)
e|----------------------------------|      
B|----------------------------------|      
G|44444444--------------------------|X2  
D|4444444444444444447777777755554444|      
A|2222222244444444447777777755554444|      
D|--------44444444447777777755554444|      
  Someone save me if you will...
  And please just save me...

---------------------------------------------------------------------------

Solo: 

e|---------|     |-----------------|
B|---------|     |-----------------|
G|----7----|X3   |--7-9-9b---9r-77-|
D|-/9---9--|     |-----------------|
A|---------|     |-----------------|
D|---------|     |-----------------|
                                 ~

e|--------------------------------|  |---------------------------------|
B|-17br17-15br15--17br17h15h17-17-|  |---------------------------------|
G|-16br---14br--------------------|  |-----16-14-----------------------|
D|--------------------------------|  |-/16-------16-15-16-15-14-13-15b-|
A|--------------------------------|  |---------------------------------|
D|--------------------------------|  |---------------------------------|
                                                                              
e|------------------------------|   |-----------------------------------|
B|---15--/17----15-h16p15----15-|   |-----------------------------------|
G|-15--15-----------------h16---|   |-----------------------------------| 
D|------------------------------|   |-16-14-\12-/16---16-\14-\12--------|
A|------------------------------|   |---------------------------h13-/14-|
D|------------------------------|   |-----------------------------------|

---------------------------------------------------------------------------

e|--------------------------------|
B|--------------------------------|
G|4444444477777777----------------|X3
D|44444444777777777777777755554444|
A|22222222555555557777777755554444|
D|----------------7777777755554444|
  Jump... in the water...
  Jump... on the altar...
  My hardest question...

---------------------------------------------------------------------------

 e|------------------------------------------|
 B|------------------------------------------|
 G|4444444--7777777--------------------------|
 D|4444444--7777777--7-7-7-7-77-5-5-5-44-4444|
 A|2222222--5555555--7-7-7-7-77-5-5-5-44-4444|
 D|------------------7-7-7-7-77-5-5-5-44-4444|
is Why...

---------------------------------------------------------------------------

e|----------------------------------|
B|----------------------------------|
G|44444444--------------------------|X2
D|4444444444444444447777777755554444|
A|2222222244444444447777777755554444|
D|--------44444444447777777755554444|
  Someone save me if you will...
  And please just save me...

---------------------------------------------------------------------------

e|--------------------------------|--------------------------------|
B|--------------------------------|--------------------------------|
G|4444444477777777----------------|44444444777777776666666644443333|
D|44444444777777777777777755554444|44444444777777776666666644443333|
A|22222222555555557777777755554444|22222222555555554444444422221111|
D|----------------7777777755554444|--------------------------------|
  Someone save me...               Somebody save me...

---------------------------------------------------------------------------

e|-------|
B|-------|
G|4444444|
D|4444444|
A|2222222|
D|-------|

---------------------------------------------------------------------------

 b = bend
 r = release
 /  slide up
 \  slide down
 h  hammer-on
 p  pull-off
 ~  vibrato
 +  harmonic
 x  Mute note
            
Submit corrections

↑ Back to top | Tablatures and chords for acoustic guitar and electric guitar, ukulele, drums are parodies/interpretations of the original songs. You may use it for private study, scholarship, research or language learning purposes only