Home » S » Shinedown »

Shinedown - If You Only Knew solo Tabs

Artists:  A B C D E F G H I J K L M N O P Q R S T U V W X Y Z # 

If You Only Knew solo Tabs

(ver. 2) Click to play this song!
Shinedown
Chords under the solo are: Am, F, C, F, C


e|--------------------------------------------------------------------|
B|--------------------------------------------------------------------|
G|-14--16--16--16---17--17--17----------------------------------------|
D|--x--x---x----x----x--x---x-----------------------------------------| x2
A|-12--14--14--14---15--15--15----------------------------------------|
E|--------------------------------------------------------------------|

e|------------12---------------12-------------------------------------|
B|-----13--------------13---------13----------------------------------|
G|-10------12------10------12-----------------------------------------|
D|--------------------------------------------------------------------|
A|--------------------------------------------------------------------|
E|--------------------------------------------------------------------|

e|--------------------------------------------------------------------|
B|--------------------------------------------------------------------|
G|-14--16--16--16---17--17--17----------------------------------------|
D|--x--x---x----x----x--x---x-----------------------------------------| x2
A|-12--14--14--14---15--15--15----------------------------------------|
E|--------------------------------------------------------------------|

e|-----------12-----12-----12-----12--15--13--------------------------|
B|-13----13-----13-----13-----13--------------15~---------------------|
G|----12--------------------------------------------------------------|
D|--------------------------------------------------------------------|
A|--------------------------------------------------------------------|
E|--------------------------------------------------------------------|

            
Submit corrections

↑ Back to top | Tablatures and chords for acoustic guitar and electric guitar, ukulele, drums are parodies/interpretations of the original songs. You may use it for private study, scholarship, research or language learning purposes only