Home » S » Shinedown »

Shinedown - Fly From The Inside Tabs

Artists:  A B C D E F G H I J K L M N O P Q R S T U V W X Y Z # 

Fly From The Inside Tabs

(ver. 2) Click to play this song!
Shinedown
Artist - Shinedown
Title – Fly From The Inside

This is my first tab, but I’m pretty sure about it, but there may be a few problems in the verse, but if ya have any problems with it, tab it yourself.

 1 step down and in Drop D

Intro Riff 1  4x    Clean			
Guitar 1                                                                               
D |---------------------------------------|            
A |---------------------------------------|        
F |-13 13 13 13---14 14 14 14---16--------|               
C |---------------------------------------|             
G |-11 11 11 11---12 12 12 12---14--------|              
C |---------------------------------------|              

Intro Riff 2   4x   Distortion
Guitar 2
D |-------------------------|
A |-------------------------|
F |-------------------------|
C |-10 10 10 10 10 10 10 10-|
G |-10 10 10 10 10 10 10 10-|
C |-10 10 10 10 10 10 10 10-|

Intro Riff 3    4x   Distortion
D |---------------------------------|
A |---------------------------------|
F |---12-12-12---11-11-11---7-------|
C |---------------------------------|
G |---10-10-10----9--9--9---5-------|
C |---------------------------------|

Intro Riff 4  2x    Distortion 
D |---------------------------------------------------------------|
A |---------------------------------------------------------------|
F |---------------------------------------------------------------|
C |-------10---9---5---5h7--------------10---9---5---x5-----------|
G | 0 0---10---9---5---5h7---------0 0--10---9---5---x5-----------|
C | 0 0---10---9---5---5h7---------0 0--10---9---5---x5-----------|

D |--------------------------------------------------xxxx--------|
A |--------------------------------------------------xxxx -------|
F |--------------------------------------------------xxxx--------|
C |-------10---9---5---5h7--------------10---9---5---xxxx--------|
G | 0 0---10---9---5---5h7---------0 0--10---9---5---xxxx--------|
C | 0 0---10---9---5---5h7---------0 0--10---9---5---xxxx--------|

Verse 4x  Guitar 1     Clean   
D | ------------------------------------------------------------------|
A | ----------7-7-7---------8--5-----------7-7-7-----------8--5-------|
F | ----------6-6-6---------7--4-----------6-6-6-----------7--4-------|
C | -4-4-4---------5-5-5----------4-4-4----------5-5-5----------------|
G | -4-4-4---------5-5-5----------4-4-4----------5-5-5----------------|
C | -4-4-4---------5-5-5----------4-4-4----------5-5-5----------------|

Bridge 1x  Guitar 2     Distortion    
D |----------------------------------------------------------------------------|
A |----------------------------------------------------------------------------|
F |---2222222222-/-5555555555-\-2222222222-/-55555-/-77777---------------------|
C |---2222222222-/-5555555555-\-2222222222-/-55555-/-77777---------------------|
G |---0000000000-/-3333333333-\-0000000000-/-33333-/-55555---------------------|
C |----------------------------------------------------------------------------|

Chorus 2x   Distortion     Guitar 1
D |-----------------------------------------------------------------------|
A |-----------------------------------------------------------------------|
F |-------------5---5---5---------------7---7---7-------------------------|
C |--2---2---2--5---5---5----5---5---5--7---7---7-------------------------|
G |--2---2---2--3---3---3----5---5---5--5---5---5-------------------------|
C |--2---2---2---------------5---5---5------------------------------------|

Chorus 2x   Distortion     Guitar 2
D |---------------------------------------------------------------------------------|
A |---------------------------------------------------------------------------------|
F |---13---13-13-13-/-14---14-/-16----12---12-12---11---11-11----7-/-14-14-14-14----|
C |---------------------------------------------------------------------------------|
G |---11---11-11-11-/-12---12-/-14----10---10-10----9----9--9----5-/-12-12-14-12----|
C |---------------------------------------------------------------------------------|

Interlude Guitar 1     Distortion
D |-------------xxxx---------------------------------xxxx-------------------------|
A |-------------xxxx---------------------------------xxxx-------------------------|
F |-------------xxxx---------------------------------xxxx-------------------------|
C |-0--10--0--10xxxx---0--10--0--0-10--0--10---0---10xxxx---0---10---0--6-5---3---|
G |-0--10--0--10xxxx---0--10--0--0-10--0--10---0---10xxxx---0---10---0--6-5---3---|
C |-0--10--0--10xxxx---0--10--0--0-10--0--10---0---10xxxx---0---10---0--6-5---3---|
                                |-|
                                pm
Interlude   Guitar 2     Distortion			  
D |------------------------------------------------------------------|
A |------------------------------------------------------------------|
F |---16-16-16-16-16-\-15-15-15-15-15-\-12-12-12-12-12-\-9-9-9-9-9---|
C |------------------------------------------------------------------|
G |---14-14-14-14-14-\-13-13-13-13-13-\-10-10-10-10-10-\-7-7-7-7-7---|
C |------------------------------------------------------------------|



There’s a little variation in the interlude, but its the same basic pattern. 

You can just listen to the song for the exact timings, but I can assure you that everything is there.
            
Submit corrections

↑ Back to top | Tablatures and chords for acoustic guitar and electric guitar, ukulele, drums are parodies/interpretations of the original songs. You may use it for private study, scholarship, research or language learning purposes only