Home » S » Shinedown »

Shinedown - Crying Out Tabs

Artists:  A B C D E F G H I J K L M N O P Q R S T U V W X Y Z # 

Crying Out Tabs

(ver. 2) Click to play this song!
Shinedown
BAND: SHINEDOWN

THE LAST CHORUS MAY NOT BE RIGHT BUT OTHER THAN THAT...

TUNING: DROP D STANDARD (D A D G B E)

INTRO (2x)
E[----------]
B[----------]
G[----------]
D[--9---10--]
A[--7---7---]
D[----------]

INTRO PT.2/PRE-CHORUS
E[-----------------------|------------------]
B[o---------------------o|0--9-10--9-10-5--o]
G[-----------------------|---x-x---x-x--x---]
D[---2h4-4-2h4-4-2h4-4---|---6-7---6-7--2---]
A[o--2h4-4-2h4-4-2h4-4--o|0----------------o]
D[---2h4-4-2h4-4-2h4-4---|------------------]

VERSE
E[-----------------------]
B[0---------------10-9--0]
G[----------------x--x---]
D[---4p2-2-4p2-2--7--6---]
A[0--4p2-2-4p2-2--------0]
D[---4p2-2-4p2-2---------]

PRE-CHORUS

CHORUS
E[------------]
B[o----------0]
G[------------]
D[---0--2-4---]
A[o--0--2-4--0]
D[---0--2-4---]

OCTAVE RIFF OF INTRO

VERSE

PRE-CHORUS

CHORUS

BRIDGE
THERES A LOT GOING ON, "JUICE" WISE, BUT THE CHORDS ARE AS FOLLOWS:
E[----------------------------]
B[----------------------------]
G[----------------------------] OCTAVE RIFF
D[--9--5----44-4--44-4--44-4--] OF INTRO UNDER
A[--9--5----44-4--44-4--44-4--] THE F#
D[--9--5----44-4--44-4--44-4--]

DBL CHORUS
            
Submit corrections

↑ Back to top | Tablatures and chords for acoustic guitar and electric guitar, ukulele, drums are parodies/interpretations of the original songs. You may use it for private study, scholarship, research or language learning purposes only