» » »

Shakira - Waka Waka This Time For Africa Tabs

Artists:  A B C D E F G H I J K L M N O P Q R S T U V W X Y Z # 

Waka Waka This Time For Africa Tabs

(ver. 2) Click to play this song!
Shakira
 Rating:
4/5 (4 votes)

 Waka Waka This Time For Africa lessons Tabs too difficult? Try these video lessons and learn fast
 
                Note: These tabs are for the short Instrumental solo part in the song, I couldn't really 
find any other tabs on the internet for it,
so I thought I'd just put it up. Hope you like it, and enjoy :)


E|-----------------10-10-10-8-7----|-----------------10-10-10-8-7----|
B|-----8-----8------------------10-|-----7-----7------------------10-|
G|-7-----7-----7-------------------|-7-----7-----7-------------------|
D|---------------------------------|---------------------------------|
A|---------------------------------|---------------------------------|
E|---------------------------------|---------------------------------|

 |-7-----7---------12----------12--|12---8-----8-----8-----8---7-----|
 |---------------------------------|-------------------------------8-|
 |---9-----9/12---------10/12------|-------------9-----9-------------|
 |---------------------------------|---------------------------------|
 |---------------------------------|---------------------------------|
 |---------------------------------|---------------------------------|

 |-----------------10-10-10-8-7----|-----------------10-10-10-8-7----|
 |-----8-----8------------------10-|-----7-----7------------------10-|
 |-7-----7-----7-------------------|-7-----7-----7-------------------|
 |---------------------------------|---------------------------------|
 |---------------------------------|---------------------------------|
 |---------------------------------|---------------------------------|

 |-7-----7---------12----------12--|12---8-----8--------12--10--8---7|------|
 |---------------------------------|---------------------------------|---8--|
 |---9-----9/12---------10/12------|-------------9----12--11--9------|------|
 |---------------------------------|---------------------------------|------|
 |---------------------------------|---------------------------------|------|
 |---------------------------------|---------------------------------|------|


If you want to play it higher, just move all the notes up 2 frets. For instance, if a 
note is on the 7th fret, just move it up to the 9th, then do the same with the rest.
            
Submit corrections


        Waka Waka This Time For Africa lessons Hard to play? Try these video lessons and learn fast Waka Waka This Time For Africa lessons
        
↑ Back to top | Tablatures and chords for acoustic guitar and electric guitar, ukulele, drums are parodies/interpretations of the original songs. You may use it for private study, scholarship, research or language learning purposes only