» » »

Shakira - Whenever Wherever Tabs

Artists:  A B C D E F G H I J K L M N O P Q R S T U V W X Y Z # 

Whenever Wherever Tabs

(ver. 1) Click to play this song!
Shakira
 Rating:
3.8/5 (5 votes)

 Whenever Wherever lessons Tabs too difficult? Try these video lessons and learn fast
 
                Shakira
Whenever Wherever
                        
   Este Tab Fue Copiao Pero K se Joda Asi k estaba buscando por ahi k kancion no estaba por lo menos para aportar algo asi k aki sta la bendita cancion yo no se si esta bien pq todavia no me he puesto a sacarla ni me importa asi k para los estupidos
akis esta la caniocn  :P

Standard Tuning:

Intro:
-------5------------4---------------------------------------------------------
------------------------6-----------------------------------------------------
-4-7-4--------4-7-4-------7-4-------------------------------------------------
------------------------------7-8-9-------------------------------------------
                                                                              
--12-12--12-----12-12--12--9--9---9-------11-11--11-----12-12--12---12-12--12-
--12-12--12-----12-12--12--10-10--10------12-12--12-----12-12--12---12-12--12-
                                                                              
Verse 1:

--12-12--12-----12-12--12--9--9---9-------11-11--11---------------------------
--12-12--12-----12-12--12--10-10--10------12-12--12--------------------------- x4


Interlude:

---------------------2--------------------------------------------------------
------0-2-4---------------------------0-2-------------------------------------
-2----------------------------------------4-----------------------------------
                                                                              
Chorus:
--12-12--12-----12-12--12--9--9---9-------11-11--11---------------------------
--12-12--12-----12-12--12--10-10--10------12-12--12--------------------------- x4

on chorus 2 they throw in a bend: 
    b
----------
--8-8-8---
----------
----------
----------
----------
            
Submit corrections


        Whenever Wherever lessons Hard to play? Try these video lessons and learn fast Whenever Wherever lessons
        
↑ Back to top | Tablatures and chords for acoustic guitar and electric guitar, ukulele, drums are parodies/interpretations of the original songs. You may use it for private study, scholarship, research or language learning purposes only