» » »

Shakira - Underneath Your Clothes Tabs

Artists:  A B C D E F G H I J K L M N O P Q R S T U V W X Y Z # 

Underneath Your Clothes Tabs

(ver. 3) Click to play this song!
Shakira
 Rating:
4/5 (4 votes)

 Underneath Your Clothes lessons Tabs too difficult? Try these video lessons and learn fast
 
                Intro: \=HoLd.
 E------------------------------------------------------------|
 B ---------------------------------5-----3--3----------------|
 G ---5------3-3-----------------------6--------3-------------|
 D ------6--------3-3-----6-----6--------------------5--6--5\-|
 A -------------------4-----4---------------------------------|
 E 4-----------------------------4----------------------------|

Verse:
        G#         C#  D#          G#          C#    D#
 E --------4---------4---6-------------4---------4-----6-|
 B --------4---------6---8-------------4---------6-----8-|
 G ----5---5---------6---8---------5---5---------6-----8-|
 D ----6-----------6----8----------6-----------6-----8---|
 A --6---6-------4-----6---------6---6-------4-----6-----|
 E 4---------------------------4-------------------------|
      Fmin         C#    D#         Fmin           C#       
 E ----------------------------------------------------4--|
 B -------1------------------------------1-----------6----|
 G ----1--1----------6-----8---------1---1---------6------|
 D ----3--3--------6-----8-----------3---3-------6--------|
 A --3---3-------4-----6-----------3---3-------4----------|
 E 1-----------------------------1------------------------|
       D#
 E --------6-|
 B ------8---|
 G ----8-----|
 D --8-------|
 A 6---------|
 E ----------|

Chorus:
It is the same as the verse, but the chords will be played put!!!

 g#   /  g#   /  c#   /  d#
 g#   /  g#   /  c#   /  d#
 fmin /  fmin /  c#   /  d#
 
And then:

 E 4-----------|
 B 4-----------|
 G 5-----5-6s10|
 D 6-----------|
 A 6-----------|
 E 4-----------|


ENJOY!!!!!
            
Submit corrections


        Underneath Your Clothes lessons Hard to play? Try these video lessons and learn fast Underneath Your Clothes lessons
        
↑ Back to top | Tablatures and chords for acoustic guitar and electric guitar, ukulele, drums are parodies/interpretations of the original songs. You may use it for private study, scholarship, research or language learning purposes only