» » »

Shakira - Si Te Vas Tabs

Artists:  A B C D E F G H I J K L M N O P Q R S T U V W X Y Z # 

Si Te Vas Tabs

(ver. 2) Click to play this song!
Shakira
 Rating:
4/5 (4 votes)

 Si Te Vas lessons Tabs too difficult? Try these video lessons and learn fast
 
                



E--------0-----------0-----------0-----3--2--0----------0-----------0--3-------------
B-----------------------------------------------3----------------------0-------------
G-----2-----2-----2-----2-----2-----2-----------------2----2-----2-----2-------------
D--0-----------------------2-----------------------0-------------------2-------------
A--------------0----------------------------------------------0----------------------
E------------------------------------------------------------------------------------


E--------0-----------0-----------0-----3--2--0-----------0----------0------------0---
B-----------------------------------------------3------------------------------------
G-----2-----2-----2-----2-----2-----2-----------------2-----2-----2-----2-----2-----2
D--0-----------------------2-----------------------0-----------------------2---------
A--------------0-----------------------------------------------0---------------------
E------------------------------------------------------------------------------------



E--3--2--0-----------0-----------0---3----
B-----------3------------------------0----
G-----------------2-----2-----2------2----
D--------------0---------------------2----
A--------------------------0--------------
E-----------------------------------------
            
Submit corrections


        Si Te Vas lessons Hard to play? Try these video lessons and learn fast Si Te Vas lessons
        
↑ Back to top | Tablatures and chords for acoustic guitar and electric guitar, ukulele, drums are parodies/interpretations of the original songs. You may use it for private study, scholarship, research or language learning purposes only