» » »

Shakira - Que Me Quedes Tu Tabs

Artists:  A B C D E F G H I J K L M N O P Q R S T U V W X Y Z # 

Que Me Quedes Tu Tabs

(ver. 1) Click to play this song!
Shakira
 Rating:
4/5 (4 votes)

 Que Me Quedes Tu lessons Tabs too difficult? Try these video lessons and learn fast
 
                |-3-6-3---3----------------------|
|-------6---6-3-6-3-------3-6-3--|
|-------------------5-3-5--------|
|--------------------------------|
|--------------------------------|
|--------------------------------|


|--------------------------------------------------|
|--------------------------------------------------|
|--------------------------------------------------|
|-----1--------------------------------------------|
|-3-3---3-----1-----0-1-1-1-1-0-------0------0-----|
|---------3-3---3-3-------------3-1-1---1-1-----1--|


|------------------------------------------------|
|------------------------------------------------|
|------------------------------------------------|
|-----1------------------------------------------|
|-3-3---3-----1-----0-1-1-1-1-0-------0-----0----|
|---------3-3---3-3-------------3-1-1---1-1---1--|



******************************************************************************************
******************************************************************************************
            
Submit corrections


        Que Me Quedes Tu lessons Hard to play? Try these video lessons and learn fast Que Me Quedes Tu lessons
        
↑ Back to top | Tablatures and chords for acoustic guitar and electric guitar, ukulele, drums are parodies/interpretations of the original songs. You may use it for private study, scholarship, research or language learning purposes only