» » »

Shakira - Donde Estan Los Ladrones? Tabs

Artists:  A B C D E F G H I J K L M N O P Q R S T U V W X Y Z # 

Donde Estan Los Ladrones? Tabs

(ver. 2) Click to play this song!
Shakira
 Rating:
4/5 (4 votes)

 Donde Estan Los Ladrones? lessons Tabs too difficult? Try these video lessons and learn fast
 
                

e|----------------------------------------------------------------------------------|
B|----------------------------------------------------------------------------------|
G|-------------------6--6----------6------------------------------------------------|
D|----------------7--7--7--7-7-7-7-7-7--9-------------------------------------------|
A|---9-9-9-7--5---7--7--7--7-7-7-7-7-7--9---11-11-9--7--9--11--11--11-11--11--9--7--|
E|----------------5--5--5--5-5-5-5-5-5--7-------------------------------------------|


e|-----------------------------------------------|
B|-----------------------------------------------|
G|-------7---------------7---------9---------9---|
D|---7---------7-----7---------9--------9----9---|
A|-5---5-----5---5-5---5-----7---7----7---7--7---|
E|-----------------------------------------------|



Verse 
e|------------------------------------------------------------------------------------------|
B|------------------------------------------------------------------------------------------|
G|----6--6----------6----------------------------------7----------------7--------9--------9-|
D|-7--7--7--7-7-7-7-7-7--9------------------------7---------7------7--------9--------9----9-|
A|-7--7--7--7-7-7-7-7-7--9--11--11--9---7---9---5---5-----5---5--5---5----7---7----7---7--7-|
E|-5--5--5--5-5-5-5-5-5--7------------------------------------------------------------------|

e|------------------------------------------------------------------------------------------|
B|------------------------------------------------------------------------------------------|
G|----6--6----------6----------------------------------7----------------7--------9--------9-|
D|-7--7--7--7-7-7-7-7-7--9------------------------7---------7------7--------9--------9----9-|
A|-7--7--7--7-7-7-7-7-7--9-hold-----------------5---5-----5---5--5---5----7---7----7---7--7-|
E|-5--5--5--5-5-5-5-5-5--7------------------------------------------------------------------|


this is the chorus it starts out with a wild little finger slide and then distorted power chords 
e|------------------------------------------------------------------------------------------------|
B|------------------------------------------------------------------------------------------------|
G|------------------------------------------------------------------------------------------------|
D|-------4-4-4-4-4---6--7-7-7-7-7-7-----9-9-9-9-9--11--12-12-12-12-12-12--14-14-14-14-14-14-14-14-|
A|-------4-4-4-4-4---6--7-7-7-7-7-7-x2--9-9-9-9-9--11--12-12-12-12-12-12--14-14-14-14-14-14-14-14-|
E|-3/15--2-2-2-2-2---4--5-5-5-5-5-5-----7-7-7-7-7--9---10-10-10-10-10-10--12-12-12-12-12-12-12-12-|

this is how the chorus ends
e|----------------------------|
B|----------------------------|
G|----------------------------|
D|-9--11-12-14---9--11-12-14--|
A|-9--11-12-14---9--11-12-14--|
E|-7--9--10-12---7--9--10-12--|


Verse
e|----------------------------------------------------------------------------------------------|
B|----------------------------------------------------------------------------------------------|
G|----6--6----------6---------------------------------------7-------------7--------9---------9--|
D|-7--7--7--7-7-7-7-7-7--9--------9-----------9----------7------7------7--------9--------9---9--|
A|-7--7--7--7-7-7-7-7-7--9----9-----9---9---9--9--9----5---5--5---5--5---5----7---7----7---7-7--|
E|-5--5--5--5-5-5-5-5-5--7--7---7-----7---7-----7-----------------------------------------------|


e|-------------------------------------------------------------------------------|
B|-------------------------------------------------------------------------------|
G|-----------------6--6----------6-----------------------------------------------|
D|--------------7--7--7--7-7-7-7-7-7--9------------------------------------------|
A|-9-9-9-7--5---7--7--7--7-7-7-7-7-7--9---11-11-9--7--9--11--11--11-11--11--9--7-|
E|--------------5--5--5--5-5-5-5-5-5--7------------------------------------------|


e|----------------------------------------------|
B|----------------------------------------------|
G|-------7---------------7---------9---------9--|
D|---7---------7-----7---------9--------9----9--|
A|-5---5-----5---5-5---5-----7---7----7---7--7--|
E|----------------------------------------------|

Chorus
e|------------------------------------------------------------------------------------------------|
B|------------------------------------------------------------------------------------------------|
G|------------------------------------------------------------------------------------------------|
D|-------4-4-4-4-4---6--7-7-7-7-7-7-----9-9-9-9-9--11--12-12-12-12-12-12--14-14-14-14-14-14-14-14-|
A|-------4-4-4-4-4---6--7-7-7-7-7-7-x2--9-9-9-9-9--11--12-12-12-12-12-12--14-14-14-14-14-14-14-14-|
E|-3/15--2-2-2-2-2---4--5-5-5-5-5-5-----7-7-7-7-7--9---10-10-10-10-10-10--12-12-12-12-12-12-12-12-|


e|----------------------------|
B|----------------------------|
G|----------------------------|
D|-9--11-12-14---9--11-12-14--|
A|-9--11-12-14---9--11-12-14--|
E|-7--9--10-12---7--9--10-12--|
            
Submit corrections


        Donde Estan Los Ladrones? lessons Hard to play? Try these video lessons and learn fast Donde Estan Los Ladrones? lessons
        
↑ Back to top | Tablatures and chords for acoustic guitar and electric guitar, ukulele, drums are parodies/interpretations of the original songs. You may use it for private study, scholarship, research or language learning purposes only