» » »

Shadows Fall - Another Hero Lost Tabs

Artists:  A B C D E F G H I J K L M N O P Q R S T U V W X Y Z # 

Another Hero Lost Tabs

(ver. 3) Click to play this song!
Shadows Fall
 Rating:
4/5 (4 votes)

 Another Hero Lost lessons Tabs too difficult? Try these video lessons and learn fast
 
                Another hero lost
Shadows Fall - threads of life
tune all strings down a whole step
if you don't know how to do this I
Suggest using a tuner and tune from high
to low :
D,G,C,F,A,D

behold the first tab of the Threads of Life Album!

alright now, this is my first tab ever! i am 17 years old and i have been playing guitar
at least ten years. ive always had very easy time figuring out how to play songs, today
tabbing out Shadows Fall's "Another hero lost" just one week after their latest album 
of Life was released! im not limited to metal i can also play all the cr*p you've
hearing on the radio for the last five years, but there is some good stuff there like 
Barny intro theme music!, im joking. bottom line is i wont say no to learning any kind of 
even Steve Vai's work i'll try anything!.
so if any of you have any questions or fix-ups in any of my tabs, or suggest a song to
anyone learning a Shadows Fall song is gotta be worth talking to.
Legends:
b - bend a whole step
bu bd  - bend up whole step and then
         come back to original note
/ - slide up the neck
V - Vibrato
H - hammer on
p - pull off
* - harmonized note

chords:

  Am       C       G       Em      F
|-----| |-----| |--1--| |--0--| |--1--|
|-1---| |--1--| |--0--| |--0--| |--1--|
|-2---| |--0--| |--0--| |--0--| |--2--|
|-2---| |--2--| |--0--| |--2--| |--3--|
|-0---| |--3--| |--2--| |--2--| |--3--|
|-----| |-----| |--3--| |--0--| |--1--|

intro:                                                let open note B ring
-----0-------0----------------------------------------------------------|
----3-3--0h1--0--3-1-0-0h1p0-----1p0------1p0------3-1-0----------------|
---2-----------2------------0---0---0-0--0---0-0------------------------|
--2-----2---2----------------3-3-----3--3-----3-------------------------|
-0-----0----------------------0--------0--------------------------------|
----------------3--------------------------------3----------------------|
simple...

verse(s)

(i never leave you...)

(all of the battles...)

------0-------2----3-1-1-1p0--------------------------------------------|
----1--1-0---2-2-------------0-0-0h1------------------------------------|
---2-2--2-------0-2-----------------------------------------------------|
--2---------0----0------3-----------------------------------------------|
-0----------------------------------------------------------------------|
-----------3----------------3-------------------------------------------|
repeat this part as needed

(forever is waiting ...)

------------3-1-0-0h1p0------------------3------------------------------|
---0----1--------------0-1---0----1--0h1--------------------------------|
--0----0--------------------0----0--0---0-------------------------------|
-3--3-2---0----------------3--3-2---------------------------------------|
------------------------------------------------------------------------|
-----------------------------------3------------------------------------|

this is that ballad type solo:

-----------------------/12-13-15-15b-(15b)-(15b)-13-15-10-12-13-13bu-bd-12v-|
----------------------------------------------------------------------------|
--7bu-bd-5--0-4-5h7-5-4-----------------------------------------------------|
----------------------------------------------------------------------------|
----------------------------------------------------------------------------|
----------------------------------------------------------------------------|
*the harmonzed note at the end is on the 10th fret on the B string

chourus:
Am    C       G     Em
your gone, but not forgot
F
Another hero Lost
Am    C      G         Em     F
The sorrow builds with every passing
Am       C      G      Em
all the lessons that you tought
F                         Am
and all the light you brought
      C    G   Em       F
lives on in the eyes of your son


and that is how its done!
            
Submit corrections


        Another Hero Lost lessons Hard to play? Try these video lessons and learn fast Another Hero Lost lessons
        
↑ Back to top | Tablatures and chords for acoustic guitar and electric guitar, ukulele, drums are parodies/interpretations of the original songs. You may use it for private study, scholarship, research or language learning purposes only