» » »

Shadows Fall - Another Hero Lost Tabs

Artists:  A B C D E F G H I J K L M N O P Q R S T U V W X Y Z # 

Another Hero Lost Tabs

(ver. 2) Click to play this song!
Shadows Fall
 Rating:
4.8/5 (19 votes)

 Another Hero Lost lessons Tabs too difficult? Try these video lessons and learn fast
 
                                   Another Hero Lost-Shadows Fall
-------------------------------------------------------------------------------------------------|

but I've been busy. Currently I've corrected most mistakes and added chorus and bridge. I
played this song in a while so it will take me a day or two to remember the rest well 
to tab it out but I promise it will be done with rhythm and lead parts soon.


Tuning: D,G,C,F,A,D (Full Step Down)

This is my absolute first tab..It should be right. Don't forget to tune down to D. I
have this tab finished very  very soon


Intro:
d|----------0+-------------------0-----------------------------------------|
A|------1-3---3-1---------0h1-3---3-----------3--1--0--0h1-0---------------|
F|----0-----------------0-----------0-------0---0--0--0------0-------------|
C|----------------------------------------0--------------------3-----------|
G|--0----------------0-----------------------------------------------------|
D|--------------------------------------3----------------------------------|

d|-------------------------------------------------------------------------|
A|-------1p0--------------1p0--------------3--1--0+------------------------|
F|-----0-----0--2-------0-----0--2-------0---0--0--------------------------|
C|---3---------3------3---------3------0-----------------------------------|
G|-------------------------------------------------------------------------|
D|-1----------------1----------------3-------------------------------------|

Verse:
Riff 1 x4:
d|---------------3----------3--1---------1p0-------------------------------|
A|----3-1-------3-3--------3--3--3-----------0----0-1----------------------|
F|---2-2-2-----0---0-----2---------2---------------0-----------------------|
C|--2-----3---0-----0---0--------------3-----------------------------------|
G|-0-----------------------------------------------------------------------|
D|-----------3-----------------------------------3-------------------------|
Riff 2:
d|---------0+--1----0+--1------3-1-0--0h1-0h1p0----------------------------|
A|--------1-------1-----------1-----1----------1---------------------------|
F|------0--------0-----------0---------------------------------------------|
C|----3---------2-----------0----------------------------------------------|
G|-------------------------------------------------------------------------|
D|-------------------------------------------------------------------------|

d|------0+--1----0+-1--------3---------------------------------------------|
A|-----1--------1---------0h1-1-0------------------------------------------|
F|----0--------0---------0-------------------------------------------------|
C|---3--------2------------------------------------------------------------|
G|-------------------------------------------------------------------------|
D|----------------------3--------------------------------------------------|

Intro Solo (A# Major Scale):
d|-------------------------------------------------------------------------|
A|-----------------------12h13h15s17++b19p15p13h15--12-13-13b15r13-12~+-10-|
F|-9-----------------------------------------------------------------------|
C|----12-10---------12+/9--------------------------------------------------|
G|------------10-12--------------------------------------------------------|
D|-------------------------------------------------------------------------|

Repeat Riff 1
Riff 2
Riff 2 End basically just palm mute this c-5-| a few times
                                         G-5-|
                                         D-3-|

Chorus:
d|-------------------------------------|
A|-------------------------------------|
F|-2+-5--------------2+-5-------------2|It Repeats 4x I think not sure
C|-2+-5--5-2+--2--5--2+-5--5-2+--2--5-2|
G|-0+-3--5-2+--2--5--0+-3--5-2+--2--5-0|
D|-------3-0+--1--3--------3-0+--1--3--|

Bridge:
d|---------|
A|---------|
F|-2+------|Again Repeats a number of times not sure how many.
C|-2+-3+---|
G|-0+-3+---|
D|----1+---|
During the bridge there's an acoustic part I'm not sure what it is exactly but something
the lines of this....
d|-------------|
A|--------0-1--|
F|-2+----------|
C|-2+---3------|
G|-0+--3-------|
D|----1--------|

________________________________________
| /  slide up
| \  slide down
| h  hammer-on
| p  pull-off
| ~  vibrato
| +  Let Ring
| x  Mute note
| *  Harmonic
============================================================================
            
Submit corrections


        Another Hero Lost lessons Hard to play? Try these video lessons and learn fast Another Hero Lost lessons
        
↑ Back to top | Tablatures and chords for acoustic guitar and electric guitar, ukulele, drums are parodies/interpretations of the original songs. You may use it for private study, scholarship, research or language learning purposes only