» » »

Shadows - Stranger Tabs

Artists:  A B C D E F G H I J K L M N O P Q R S T U V W X Y Z # 

Stranger Tabs

(ver. 1) Click to play this song!
Shadows
 Rating:
3.8/5 (6 votes)

 Stranger lessons Tabs too difficult? Try these video lessons and learn fast
 
                -8bv-5-----------|---------------|-----------------------|---------2v-------|-
-------5v--------|---------------|-----------2---2-------|-------3----3-5v--|-
----------7-5/6v-|---------2-2v--|---------2---4---4-2v--|---2-2------------|-
-----------------|-2-2-4-4-------|-2-2-4-4---------------|-4----------------|-
-----------------|---------------|-----------------------|------------------|-
-----------------|---------------|-----------------------|------------------|-
  Play Twice        Part 1                                                    

---------------|----------------|--------------------------|----------------|-
---------------|----------------|--------------------------|----------------|-
---------------|----------------|--------------------------|----------------|-
-/2-2-2-4-2----|-0-0/2-0--------|------------------------2-|----------------|-
---------------|---------4-0-0--|---2v-2-4-2-0-----0-2/4---|-----0----0---0-|-
---------------|----------------|/5------------2-2---------|-0/2---/2---2---|-
 Part 2                                                                       

-----5-5v-7-8v-7-5v-|----------5-5v-|-----5-5v-7-8v-7-5v-|-----5v-------4v--|-
-5/7----------------|-7-5v-7-7------|-5/7----------------|-5/7----7-6-5-----|-
--------------------|---------------|--------------------|------------------|-
--------------------|---------------|--------------------|------------------|-
--------------------|---------------|--------------------|------------------|-
--------------------|---------------|--------------------|------------------|-
 Part 3                                                                       

-----5v---------4v--|----------------|--------------------------|-----------|-
-5/7------7-6-5-----|----------------|---------------2---2------|-----------|-
--------------------|------------2-2-|-------------2---4---4-2v-|-----------|-
--------------------|-2-2-4-4-4------|--2-2-4-4-4---------------|-----------|-
--------------------|----------------|--------------------------|-----------|-
--------------------|----------------|--------------------------|-----------|-
                      Part 4   Damped       damped                            

---------2v------|---------------|-8bv-5--------------|-8bv-5---------------|-
-------3----3-5v-|---------------|-------5v-------5v--|-------5v------------|-
---2-2-----------|---------------|----------7-5h6-----|----------7-5/6------|-
-4---------------|---------------|--------------------|---------------------|-
-----------------|---------------|--------------------|---------------------|-
-----------------|---------------|--------------------|---------------------|-
                   Repeat Part 2                                              

-----5-5v-7-7/8v-7-5-|----------5-5v-|-----5-5-7-7/8-7-5v-|-----5v-------4v-|-
-5/7-----------------|-7-5-7-7v------|-5/7----------------|-5/7----7-6-5----|-
---------------------|---------------|--------------------|-----------------|-
---------------------|---------------|--------------------|-----------------|-
---------------------|---------------|--------------------|-----------------|-
---------------------|---------------|--------------------|-----------------|-
                                                                              

--------------|-----------------------|---------2v---2------|---------------|-
--------------|-----------2---2-------|-------3----3---3-5v-|---------------|-
---------2-2v-|---------2---4---4-2v--|---2-2---------------|---------------|-
-2-2-4-4------|-2-2-4-4---------------|-4-------------------|---------------|-
--------------|-----------------------|---------------------|---------------|-
--------------|-----------------------|---------------------|---------------|-
                                                               Repeat Part 2  

-8bv-5-------------|-8-5-8-5-5-|-9--9--9v-------------------------------------
-------5v-------5v-|-7---7-5-5-|10-10-10v-------------------------------------
----------7-5h6----|-----------|----------------------------------------------
-------------------|-----------|----------------------------------------------
-------------------|-----------|----------------------------------------------
-------------------|-----------|----------------------------------------------
                                   Use Trem On Last Notes To Fin
            
Submit corrections


        Stranger lessons Hard to play? Try these video lessons and learn fast Stranger lessons
        
↑ Back to top | Tablatures and chords for acoustic guitar and electric guitar, ukulele, drums are parodies/interpretations of the original songs. You may use it for private study, scholarship, research or language learning purposes only