» » »

Shadows - The Rise And Fall Of Shingel Bunt Tabs

Artists:  A B C D E F G H I J K L M N O P Q R S T U V W X Y Z # 

The Rise And Fall Of Shingel Bunt Tabs

(ver. 1) Click to play this song!
Shadows
 Rating:
4/5 (4 votes)

 The Rise And Fall Of Shingel Bunt lessons Tabs too difficult? Try these video lessons and learn fast
 
                ---------10--8------------------10--8------------------10--8---------10/12----
-10--10---8--6--10--10--10--10---8--6--10--10--10--10---8--6--10--10--8/10----
--8---8----------8---8---8---8----------8---8---8---8----------8---8----------
                                                                              
-10/12--10/12--12--10--8----------10--10--8-----------------------------------
--8/10---8/10--10---8--6--10-----------------10--10--8-----6--8---------------
---------------------------8---8------------------------8--------6/8--6/8-----
                                                                              
----10--10--8--------------------------------------------8--10--10----10--8---
---------------10--10--8-----6--8-------------10--8--10-----------------------
-8------------------------8--------6/8--6/8-----------------------------------
                                                                              

------------------------------13--13--11--------------------------------------
------------------------------------------12--12--10------8--10---------------
--------8-----------------10--------------------------10---------8/10--8/10---
-8h10------10\8--6------------------------------------------------------------
--------------------8--8------------------------------------------------------
                                                                              

-----13--13--11-----------------------------------------11--13--13--11--13----
-----------------12--12--10------8--10--------------12------------------------
-10--------------------------10---------8/10--8/10----------------------------
                                                                              

----------------------------------------11--13------11--13--11----------------
-11----------11---------------------13----------13--------------13--11--13----
-----12--12------12\10--8-----------------------------------------------------
---------------------------10--10---------------------------------------------
                                                                              

---------------------------------------------11--13------11--13--11--13--11---
-----11--13------11--13--11--13--11------13----------13-----------------------
-12----------12----------------------12---------------------------------------
                                                                              



-----10--10------10--10------11--11--10---------------------------------------
-13----------13----------13--------------13--11---13--11----------------------
----------------------------------------------------------12--12--10------8---
                                                                              

----------------------------------------------------11------13--11------11----
-------------------------11-----------------11--13--11--13--13--11--13--11----
-10------------8--10--12---------8--10--12------12------12----------12--------
-----8/10--10----------------10-----------------------------------------------
                                                                              

-------------------------------11--11--11-------------------------------------
-13--11--10------8--8------11--------------13--11---------11------------------
-12--12--10---9--8--9---9--------------------------10/12------12\10--8--------
-------------10--------10-----------------------------------------------10\8--
                                                                              
--10--------------------------------------------------------------------------
-------10x-10x-12x-12x-10x-10x-12x-12x-10x--10x-10x-12x-12x-10x-10x-12x-12x---
--------8x--8x--8x--8x--8x--8x--8x--8x--8x---8x--8x--8x--8x--8x--8x--8x--8x---
                                                                              
-------10x-10x-12x-12x-10x-10x-12x-12x-10x------------------------------------
-10x----8x--8x--8x--8x--8x--8x--8x--8x--8x---10x-10x-12x-12x-10x-10x-12x-12x--
--8x------------------------------------------8x--8x--8x--8x--8x--8x--8x--8x--
                                                                             
-----10/12--10/12--10/12--12--10--8----------------------10--8----------------
-10x--8/10---8/10---8/10--10---8--6--10--10---------------------10-8/10--8----
--8x----------------------------------8---8-----------8-----------------------
                                                                              

------------------10--8---------------------------------8--10--10--8----------
----6--8-----------------10--8/10--8-----6--8-------10----------------10------
-8--------6/8--8----------------------8--------6/8----------------------------
                                                                              

-------8------------------------10---8-------------------10--8----------------
-8/10-----10--8---------10--10---8---6--10--10---10--10---8--6--10--10---10---
-----------------8--8----8---8-----------8---8----8---8----------8---8----8---
                                                                              

-----10--8----------10/12--10/12--10/12--12--10--8----------------------------
-10---8--6--10--10---8/10---8/10---8/10--10---8--6--10--10--------------------
--8----------8---8-----------------------------------8---8--------------------
            
Submit corrections


        The Rise And Fall Of Shingel Bunt lessons Hard to play? Try these video lessons and learn fast The Rise And Fall Of Shingel Bunt lessons
        
↑ Back to top | Tablatures and chords for acoustic guitar and electric guitar, ukulele, drums are parodies/interpretations of the original songs. You may use it for private study, scholarship, research or language learning purposes only