» » »

Shadows - Theme For Young Lovers Tabs

Artists:  A B C D E F G H I J K L M N O P Q R S T U V W X Y Z # 

Theme For Young Lovers Tabs

(ver. 1) Click to play this song!
Shadows
 Rating:
4/5 (4 votes)

 Theme For Young Lovers lessons Tabs too difficult? Try these video lessons and learn fast
 
                -10--9--7--9--7--2--0-----0--2--10--9--7--9--2--0-----0-|---------------------
-----------------------3---------------------------3----|---------------------
--------------------------------------------------------|---------------------
--------------------------------------------------------|-------0--2--4--2--0-
--------------------------------------------------------|-0--2----------------
--------------------------------------------------------|---------------------
                                                                              

-------------------------------------0-----------------0--2--3--2--3--2--0----
----------------2-----------2-----2-----2-----------2-------------------------
----0--0--2--4-----4--0--4-----4-----------4--0--2----------------------------
-2----------------------------------------------------------------------------
                                                                              

----------------------------------------------------------|-------------------
----0-----------------------------------------------------|-------------------
-2-----2--------------------------------------------------|-------------------
----------4--0--2--0--0--2--2/4--2--4--2--0-----------0--0|-------0--2--4--2--
---------------------------------------------2--0--2------|-0--2--------------
----------------------------------------------------------|-------------------
                                                                              

--------------------------------------------------------------2--3--2--3--2---
--------------------2-----------2-----2--4--2-----------2--4------------------
--0-----0--0--2--4-----4--0--4-----4-----------4--0--2------------------------
-----2------------------------------------------------------------------------
                                                                              

-------------------------------------------------------------|----------------
-0-----------------------------------------------------------|----------------
----2--4--2--------------------------------------------------|-------2--0-----
-------------4--0--2--0--0--2--2/4--2--4--2--0-----------0--0|-------4--2-----
------------------------------------------------2--0--2------|-0--0--------0--
-------------------------------------------------------------|----------------
                                                                              

------------------------------|-10--9--7--9--7--2--0-----0-----2--0-----0-----
------------------------------|-----------------------3-----3--------3-----3--
-----4--2--------6--4--6--6---|-----------------------------------------------
-----5--4--------7--5--7--7---|-----------------------------------------------
--0--------0--0--------------9|-----------------------------------------------
------------------------------|-----------------------------------------------
                                                                              

---------|--------------------------------------------------------------------
--3--3--2|--------------------------------------------10x-------------10x-----
---------|------------9x-11x-9x----------------9x-11x-----11x-----11x---------
---------|-----9x-12x-----------12x-9x-12x-12x----------------12x-------------
---------|-12x----------------------------------------------------------------
---------|--------------------------------------------------------------------
                                                                              

--------------------------------------9x-10x-9x-10x-9x----------------------
-----10x-12x-10x-------------10x-12x-------------------12x-10x-12x-10x-------
-11x-------------11x-----9x---------------------------------------------11x-
---------------------12x------------------------------------------------------
                                                                              

-----------------------------------------------------------|-10--9--7--9--7---
---------------------10--10-10-----------------------------|------------------
-----9x----------9x--11---9-11---9-------------------------|------------------
-12x----12x-12x---------------------12--9------9--12--12---|------------------
-------------------------------------------12--------------|------------------
-----------------------------------------------------------|------------------
                                                                              

-2--0-----0--2---10--9--7--9--7--2--0-----0--0--10|---------------------------
-------3-------------------------------3--------10|---------------------------
------------------------------------------------11|---------------------------
------------------------------------------------12|---------------------------
--------------------------------------------------|---------------------------
--------------------------------------------------|---------------------------
            
Submit corrections


        Theme For Young Lovers lessons Hard to play? Try these video lessons and learn fast Theme For Young Lovers lessons
        
↑ Back to top | Tablatures and chords for acoustic guitar and electric guitar, ukulele, drums are parodies/interpretations of the original songs. You may use it for private study, scholarship, research or language learning purposes only