» » »

Shadows - Lost City Tabs

Artists:  A B C D E F G H I J K L M N O P Q R S T U V W X Y Z # 

Lost City Tabs

(ver. 1) Click to play this song!
Shadows
 Rating:
4/5 (4 votes)

 Lost City lessons Tabs too difficult? Try these video lessons and learn fast
 
                --5--5-3--3-2--2-0--0---|-----------------------------------------------------
------------------------|-----------------------------------------------2-----
------------------------|-------------------------------------------------4---
------------------------|---2---0--4-2-0-2-2----------2------4-2-4-6----------
------------------------|-----4--------------0--0-2-0---4-5x----------4-------
------------------------|-0---------------------------------------------------
 Intro 3 times                                                                

-----------------------------------------|--5--5-3--3-2--2-0--0--|------------
-------2---------------------------------|-----------------------|---5--------
-2-2-----4-2---------------2-------------|-----------------------|-----6-7----
-------------4---------2-4---4-----------|-----------------------|------------
-----4-----------0-0-4---------0-4-2---0-|-----------------------|-7----------
-------------------------------------2---|-----------------------|------------
                                           Intro 2 times                      

------------------------------------9-7-5-5----9-7-5--------------------------
-7-5---5-5---------5-----7-5-7-9---------------------7----------7-10-7--------
-----7---------------6-7----------6----------6--------------6-9---------------
-----------7-7-9-7--------------------------------------7-7------------7------
                                                                              

-----------7--------7------------11-----9-----7----5------9-7--|-7-------8----
-------------9--------10-7----------12----10----9----7--9------|---9-------8--
-6p5p4---------9-----------------------------------------------|-----9--------
---------7-------9---------9-----------------------------------|-------9------
-------7-------------------------------------------------------|--------------
                                                                              

-------------------------|----------------------------------------------------
-------------------------|-----------------------------------------------2----
-9----6-5-6-7-8-6-7-8-9--|-------------------------------------------------4--
---10--------------------|---2---0--4-2-0-2-2----------2------4-2-4-6---------
-------------------------|-----4--------------0--0-2-0---4-5x----------4------
-------------------------|-0--------------------------------------------------
                                                                              

-------2----------------------------------------------------------------------
-2-2-----4-2--------------2-----------------2-----------------2---------------
-------------4--------2-4---4-----------2-4---4-----------2-4---4-------------
-----4----------0-0-4---------0-4-2---4---------0-4-2---4---------0-4-2---0---
------------------------------------2-----------------2-----------------2-----
                                                                              

-5--5-3--3-2--2-0--0----------------------------------------------------------
 Intro 3 times
            
Submit corrections


        Lost City lessons Hard to play? Try these video lessons and learn fast Lost City lessons
        
↑ Back to top | Tablatures and chords for acoustic guitar and electric guitar, ukulele, drums are parodies/interpretations of the original songs. You may use it for private study, scholarship, research or language learning purposes only