» » »

Shadows - The High And The Mighty Tabs

Artists:  A B C D E F G H I J K L M N O P Q R S T U V W X Y Z # 

The High And The Mighty Tabs

(ver. 1) Click to play this song!
Shadows
 Rating:
4/5 (4 votes)

 The High And The Mighty  lessons Tabs too difficult? Try these video lessons and learn fast
 
                e|--0--------------|---------------|---------------|-----------|-------------|
B|--0--------------|---------------|---------------|-----------|-------------|  Slow
G|--1----4---------|------4--------|----4----------|----2------|-------------|
D|--2------6--4--2-|--1------------|---------------|-----------|---2-4--2--4-|
A|--2--------------|----------7--6-|-5-----5---4-2-|-3------v3--|-2----------|
E|--0--------------|---------------|---------------|-----------|-------------|

e|------------|---------------|----------|-----------|------------|----------|
B|------------|---------------|----------|-----------|------------|----------|
G|-1-2--4--1--|-----------1---|----------|-4---------|----v4------|--4-------|
D|------------|--4--2--4----2-|--v4------|---6--4--2-|-1-----2--1-|----------|
A|------------|---------------|----------|-----------|------------|5--b5-4-2-|
E|------------|---------------|----------|-----------|------------|----------|

e|------------|---------------|------------|------------|-------|------------|
B|------------|---------------|------------|------------|-------|------------|
G|----2-------|---------1--3--|--5-5/6--5--|-5-3-1---3--|--v1---|------------|
D|------------|-----2---------|------------|-------3----|-------|--4---b4----|
A|-3-----v3---|--2------------|------------|------------|-------|------------|
E|------------|---------------|------------|------------|-------|------------|

e|---------|--------|---------|---------|--------|--------|-----|------------|
B|---------|--------|---------|---------|--4--b4-|--------|-----|------------|
G|---------|--------|--4--b4--|--6--b6--|--------|--7---6-|--b5-|-4----------|
D|--6--b6--|--7-b7--|---------|---------|--------|--------|-----|----6-4--2--|
A|---------|--------|---------|---------|--------|--------|-----|------------|
E|---------|--------|---------|---------|--------|--------|-----|------------|

e|-------------|--------------|---------|-------------|------------|---------|
B|-------------|--------------|---------|-------------|------------|-2-b4----|
G|-----v4------|----4---------|----2----|-------------|-1-2--v4-1--|------4--|
D|--1-----2--1-|--------------|---------|---2-4--2-4--|------------|---------|
A|-------------|-5----5-4--2--|--3---v3-|-2-----------|------------|---------|
E|-------------|--------------|---------|-------------|------------|---------|

e|----------|-------|--b2---|---4----|--------------------------0------------|
B|-b4--5----|---5---|-------|---5----|--------------------------0------------|
G|-------6--|-------|-------|--------|---4----------------------1------------| Play last bar very slowly
D|----------|-------|-------|--------|---------6-----4-----2----2------------|
A|----------|-------|-------|--------|--------------------------2------------|
E|----------|-------|-------|--------|--------------------------0------------|
            
Submit corrections


        The High And The Mighty  lessons Hard to play? Try these video lessons and learn fast The High And The Mighty  lessons
        
↑ Back to top | Tablatures and chords for acoustic guitar and electric guitar, ukulele, drums are parodies/interpretations of the original songs. You may use it for private study, scholarship, research or language learning purposes only