» » »

Shadows - Starts Fell On Stockton Tabs

Artists:  A B C D E F G H I J K L M N O P Q R S T U V W X Y Z # 

Starts Fell On Stockton Tabs

(ver. 1) Click to play this song!
Shadows
 Rating:
4/5 (4 votes)

 Starts Fell On Stockton lessons Tabs too difficult? Try these video lessons and learn fast
 
                ---------------------|-----------------------|---------|----------------------
---------------------|-----------------------|---------|----------------------
-----------2---------|-----------------------|---------|----------------------
-----2-3-5---5-3-2---|---------2-2-----------|---------|---------2-2----------
-3-5---------------5-|-3-3-5-5-----5-5-----3-|---------|-3-3-5-5-----5-5-----3
---------------------|-----------------3-5---|---------|-----------------3-5--
 Twice                 twice                   whistle                        

----------|-8---------|----------|-8-----------|------------------------------
----------|---10p8----|----------|---10p8------|------------------------------
----------|-----------|----------|--------9----|-----5-5----------------------
----------|--------10-|----------|----------10-|-7-7---------7-7--------------
----------|-----------|----------|-------------|---------8-8------------------
----------|-----------|----------|-------------|------------------------------
 Whistle                whistle                                              

-----5-5---------------2-2-------------------------------5-5------------------
-5-5---------5-5---3-3---------3-3---2-5-2-5---5/7---7-7---------7-7----------
---------7-7---------------5-5-------------------------------8-8--------------
                                                                              

-------------------------------------------------|----------------------------
-------------------------------------------------|----------------------------
-----5-5---------------2-2------------------2----|----------------------------
-5-5---------5-5---3-3---------3----2-5-3h5---5--|---------2-2----------------
---------7-7---------------5-5-------------------|-3-3-5-5-----5-5-----5------
-------------------------------------------------|-----------------3-5--------
                                                   Twice                      

---------|-8---------|---------|-8-----------|--------------------------------
---------|---10p8----|---------|---10p8------|---5-6-5---5-6-5--5-6-5---5-6-5-
---------|-----------|---------|--------9----|---5-5-5---5-5-5--5-5-5---5-5-5-
---------|--------10-|---------|----------10-|--------------------------------
---------|-----------|---------|-------------|-3-------3------3-------3-------
---------|-----------|---------|-------------|--------------------------------
 Whistle               whistle                                                

---------------------|-----------------------|---------|----------------------
---------------------|-----------------------|---------|----------------------
-----------2---------|-----------------------|---------|----------------------
-----2-3-5---5-3-2---|---------2-2-----------|---------|---------2-2----------
-3-5---------------5-|-3-3-5-5-----5-5-----3-|---------|-3-3-5-5-----5-5-----3
---------------------|-----------------3-5---|---------|-----------------3-5--
 Twice                 twice                   whistle                        

---------|-8---------|---------|-8-----------|--------------------------------
---------|---10p8----|---------|---10p8------|--------------------------------
---------|-----------|---------|--------9----|-----5-5------------------------
---------|--------10-|---------|----------10-|-7-7---------7-7----------------
---------|-----------|---------|-------------|---------8-8--------------------
---------|-----------|---------|-------------|--------------------------------
 Whistle                whistle                                              

-----5-5---------------2-2-------------------------------5-5------------------
-5-5---------5-5---3-3---------3-3---2-5-2-5---5/7---7-7---------7-7----------
---------7-7---------------5-5-------------------------------8-8--------------
                                                                              

-------------------------------------------------|----------------------------
-------------------------------------------------|----------------------------
-----5-5---------------2-2-------------------2---|----------------------------
-5-5---------5-5---3-3---------3-----2-5-3h5---5-|---------2-2----------------
---------7-7---------------5-5-------------------|-3-3-5-5-----5-5-----3------
-------------------------------------------------|-----------------3-5--------
                                                   Twice                      

---------|-8---------|---------|-8-----------|--------------------------------
---------|---10p8----|---------|---10p8------|---5-6-5---5-6-5--5-6-5---5-6-5-
---------|-----------|---------|--------9----|---5-5-5---5-5-5--5-5-5---5-5-5-
---------|--------10-|---------|----------10-|--------------------------------
---------|-----------|---------|-------------|-3-------3------3-------3-------
---------|-----------|---------|-------------|--------------------------------
 Whistle               whistle                                                

---------------------|--------------------------------------------------------
---------------------|--------------------------------------------------------
-----------2---------|--------------------------------------------------------
-----2-3-5---5-3-2---|--------------------------------------------------------
-3-5---------------5-|--------------------------------------------------------
---------------------|--------------------------------------------------------
 Twice                 fade out
            
Submit corrections


        Starts Fell On Stockton lessons Hard to play? Try these video lessons and learn fast Starts Fell On Stockton lessons
        
↑ Back to top | Tablatures and chords for acoustic guitar and electric guitar, ukulele, drums are parodies/interpretations of the original songs. You may use it for private study, scholarship, research or language learning purposes only