» » »

Shadows - Spring Is Nearly Here Tabs

Artists:  A B C D E F G H I J K L M N O P Q R S T U V W X Y Z # 

Spring Is Nearly Here Tabs

(ver. 1) Click to play this song!
Shadows
 Rating:
4/5 (4 votes)

 Spring Is Nearly Here lessons Tabs too difficult? Try these video lessons and learn fast
 
                -------17-15---------17-15-|------------------------------------------------|
---------------------------|-5-6-8-6-5---5-6-5----5-6-8-6-5----5------------|
---12------------12--------|------------7------7-------------5--------------|
---------------------------|--------------------------------------5---------|
---------------------------|------------------------------------------------|
---------------------------|------------------------------------------------|


-|--7-------------------------|---------------------------------------------|
-|----8------8-9-10-----------|------8--------8--------8--------------------|
-|------9-10--------10----7-8-|--8*9------8*9------8*9----------------------|
-|---------------------10-----|--------10----------------10-----------------|
-|----------------------------|-----------------10--------------------------|
-|----------------------------|---------------------------------------------|


-|--------------------------------------------------------------------------|
-|--5-6-8-6-5-----5-6-5-----5-6-8-6-5-----5---------------------------------|
-|--------------7-------7---------------5-----------------------------------|
-|------------------------------------------5-------------------------------|
-|--------------------------------------------------------------------------|
-|--------------------------------------------------------------------------|


-|--7-------------------------|---------------------------------------------|
-|----8------8-9-10-----------|-----8-------8-----8-------------------------|
-|------9-10--------10----7-8-|-8*9------8*9------9-------------------------|
-|---------------------10-----|----------------------10---------------------|
-|----------------------------|-------10------10----------------------------|
-|----------------------------|---------------------------------------------|


-|-----12-13-15-13-12----12-----------12-13-15-13-12----12-20-15------------|
-|--15----------------15----13-----15----------------15---------------------|
-|-----------------------------12-------------------------------------------|
-|--------------------------------------------------------------------------|
-|--------------------------------------------------------------------------|
-|--------------------------------------------------------------------------|


-|----12-13-15-13-12------------------------12-13-15-13-12-----12-13-12-----|
-|-15----------------15-15/17\-13--------12----------------15----------15---|
-|--------------------------------12--12------------------------------------|
-|--------------------------------------------------------------------------|
-|--------------------------------------------------------------------------|
-|--------------------------------------------------------------------------|

-|-------------------------------------------------7-------------------------|
-|-8-10-12-10-8--6-8-10-8-6--8-10-12-10-8------------8------8-9-10-----------|
-|-9-10-12-10-9--7-9-10-9-7--9-10-12-10-9-----9--------9-10--------10----7-8-|
-|-----------------------------------------10-------------------------10-----|
-|----------------------------------------------10---------------------------|
-|---------------------------------------------------------------------------|


-----8--------8------8------------------------------------------------------|
-8*9------8*9--------9------------------------------------------------------|
-----------------------10---------------------------------------------------|
------10-------10-----------------------------------------------------------|


-|-----12-13-15-13-12----12-----------12-13-15-13-12----12-20-15------------|
-|--15----------------15----13-----15----------------15---------------------|
-|-----------------------------12-------------------------------------------|
-|--------------------------------------------------------------------------|
-|--------------------------------------------------------------------------|
-|--------------------------------------------------------------------------|


-|----12-13-15-13-12-----------------------12-13-15-13-12----12-13-12-------|
-|-15----------------15-15/17\-13-------12----------------15----------15----|
-|--------------------------------12--12------------------------------------|
-|--------------------------------------------------------------------------|
-|--------------------------------------------------------------------------|
-|--------------------------------------------------------------------------|

-|-------------------------------------------------7-------------------------|
-|-8--10-12-10-8--6-8-10-8-6--8-10-12-10-8-----------8------8-9-10-----------|
-|-9--10-12-10-9--7-9-10-9-7--9-10-12-10-9----9--------9-10--------10----7-8-|
-|-10--------------------------------------10-------------------------10-----|
-|-10-------------------------------------------10---------------------------|
-|---------------------------------------------------------------------------|

-|------------------------------------------17-15-13--12--------------------|
-|-----8--------8--------8--------8------12-----------13--------------------|
-|-8*9------8*9------8*9------8*9---------------------12--------------------|
-|--------------------------------------------------------------------------|
-|-------10-------10-------10-------10--------------------------------------|
-|--------------------------------------------------------------------------|
            
Submit corrections


        Spring Is Nearly Here lessons Hard to play? Try these video lessons and learn fast Spring Is Nearly Here lessons
        
↑ Back to top | Tablatures and chords for acoustic guitar and electric guitar, ukulele, drums are parodies/interpretations of the original songs. You may use it for private study, scholarship, research or language learning purposes only