» » »

Shadows - Perifidia Tabs

Artists:  A B C D E F G H I J K L M N O P Q R S T U V W X Y Z # 

Perifidia Tabs

(ver. 1) Click to play this song!
Shadows
 Rating:
4/5 (4 votes)

 Perifidia lessons Tabs too difficult? Try these video lessons and learn fast
 
                -12x--------------------------12x----------------|----------------------------
-----13x-----13x-13x--------------13x-13x--------|----------------------------
---------14x---------14x-12x--------------14x-12-|---5--4-5-7-5-4-5-5-4-------
-------------------------------------------------|-5--------------------7-7-7-
-------------------------------------------------|----------------------------
-------------------------------------------------|----------------------------
                                                                              

--------------------------------------|---------------------------------------
--------------------------------------|---------------------------------------
--4-5-7-5-4-5-4---5---------2---------|---5--4-5-7-5-4-5-5-4--------4-5-7-5-4-
----------------7---7-5-3-5---3h5p3-2-|-5--------------------7-7-7------------
--------------------------------------|---------------------------------------
--------------------------------------|---------------------------------------
                                                                              

------------------------------------|-----------------------------------------
------------------------------------|-----------------------------------------
-5-4---5---------2----------------9-|-----------------------------------------
-----7---7-5-3-5---3-2-5-7/9-10--10-|-7x--7x-6x-7x-7x-7x-6x-7x-7x-6x-7x-6x-7x-
--------------------------------10--|-----------------------------------------
------------------------------------|-----------------------------------------
                                                                              

---------------------------------------------------------|--------------------
---------------------------------------------------------|----13---12-13-15---
--------4x-5x-7x-7x-5x-4x-4x----4x-4x----4x--------------|-12-----------------
-9x-6x-----------------------7x-------7x----7x-5x-3x-2x--|--------------------
---------------------------------------------------------|--------------------
---------------------------------------------------------|--------------------
                                                                              

-13-12-13-13-12------12-13-15-13-12-13-12----13-------------10------|-------|-
----------------14------------------------14----14-12-10-12----10-9-|-------|-
                                                                      voice   

--------12x-----13x-12x--15x--15x-13x-11x-12x---------------------------------
-12/13x-----13x-------------------------------13x-----------------13x---------
--------------------------------------------------12x---------12x-----12x-----
------------------------------------------------------15x-14x-----------------
                                                                              

---------------15x-15x--15x-20x--18x-15x-20x-15x-18x-15x-18x-15x--------------
-13x-15x--15x----------------------------------------------------18x-16x-17x--
                                                                              

-15x----------------------------------------------|---------------------------
-----18x-16h17x-----16h17x-16h17x-16x17x----------|---------------------------
----------------17x----------------------17x-17\x-|-14x-13x-14x-14x-14x-13x---
--------------------------------------------------|-15x-14x-15x-15x-15x-14x---
--------------------------------------------------|---------------------------
--------------------------------------------------|---------------------------
                                                                              

---------------------------------|--------------------------------------------
---------------------------------|-12x-13x-15x-15x-13x-12x-12x-12x-----12x----
-14x-14x-13x-14x-13x-14x-16x-13x-|---------------------------------14x--------
-15x-15x-14x-15x-14x-15x-17x-14x-|--------------------------------------------
---------------------------------|--------------------------------------------
---------------------------------|--------------------------------------------
                                                                              

-12x----12x--------------------------------------------12x----12x-13x-15x-13x-
----14x-----14x-12x-10x-9x--12x-11h12x-12x-13x-14x-15x------------------------
                                                                              

-12x-13x-13x-12x-----12x-13x-15x-13x-12x-13x-12x-----13x-----------------10x--
-----------------14x-----------------------------14x-----14x-12x-10x-12x------
                                                                              

--------|-------|-12x------------------------------------12x------------------
--------|-------|-----13x-----13x-13x------------------------13x-----13x-13x--
-10x-9x-|-------|---------14x---------14x-12x--12x-14x-----------14x----------
--------|-------|-------------------------------------------------------------
--------|-------|-------------------------------------------------------------
--------|-------|-------------------------------------------------------------
          voice                                                               

-----------------12x----------------------------------------------------------
---------------------13x-----13x-13x------------------------------------------
-14x-12x-12x-14x---------14x---------14x-12x-12x-14x-------5-5-5--------------
-----------------------------------------------------10x---5-5-5--------------
-----------------------------------------------------------3-3-3--------------
            
Submit corrections


        Perifidia lessons Hard to play? Try these video lessons and learn fast Perifidia lessons
        
↑ Back to top | Tablatures and chords for acoustic guitar and electric guitar, ukulele, drums are parodies/interpretations of the original songs. You may use it for private study, scholarship, research or language learning purposes only