» » »

Shadows - Mustang Tabs

Artists:  A B C D E F G H I J K L M N O P Q R S T U V W X Y Z # 

Mustang Tabs

(ver. 1) Click to play this song!
Shadows
 Rating:
3.8/5 (5 votes)

 Mustang lessons Tabs too difficult? Try these video lessons and learn fast
 
                The Shadows - Mustang

Intro

|-------------------------------------------|
|-------------------------------------------|
|----------2-0----------2-0-----------------|
|-4-42-24-4----4-42-24-4----4-42-2----------|
|----------------------------------00000000-|
|-------------------------------------------|

Verse 1 (2x) D F C D

|-------------------------------------|
|-----------1-1-3-1-------------------|
|--2--2--2----------2---0-0-2-0-------|
|-4--4--4-------------3---------2---0-|
|---------------------------------3---|
|-------------------------------------|

Verse 2 A E G D F C D

|-------------00-0----0------------------|
|-22-2-00-2--------33-----3-3333-3-------|
|-----------2-----------4----------4-0-2-|
|----------------------------------------|
|----------------------------------------|
|----------------------------------------|

|-----------------------------------------------|
|-1-1-3-1---------------------------------------|
|---------2----0-0-0-2-0------------------------|
|-----------3------------2--0-0----0--0-0-----0-|
|-------------------------3-----3-3-------3-3---|
|-----------------------------------------------|


Verse 3 G D G A

|-10-7-10--10-7-----------10-7-10-10-7-----------------|
|---------------10---------------------10--------------|
|------------------10--7------------------10-9---------|
|----------------------------------------------(9)11-7-|
|------------------------------------------------------|
|------------------------------------------------------|

Verse 1

Verse 4

|---------------|
|---------------|
|-0-0-2-0-------|
|---------2---0-|
|-----------3---|
|---------------|

Intro

Verse 1 (2x)

Verse 2

Verse 5

|-10-7-10--10-7-----------10-7-10-10-7------------------------------------|
|---------------10---------------------10---------------------------------|
|------------------10--7------------------10-9----------------------------|
|----------------------------------------------(9)11-7-5-7-5-7--7-5-7-5-7-|
|-------------------------------------------------------------------------|
|-------------------------------------------------------------------------|

Verse 1

Verse 6

|-------------------8-8-8-10-8-----------------------|
|----10----10----10-----------10----8-8-8-10-8-------|
|-11----11----11-----------------10-----------9----7-|
|-----------------------------------------------10---|
|----------------------------------------------------|
|----------------------------------------------------|

Verse 4 4ever (Fade ou
            
Submit corrections


        Mustang lessons Hard to play? Try these video lessons and learn fast Mustang lessons
        
↑ Back to top | Tablatures and chords for acoustic guitar and electric guitar, ukulele, drums are parodies/interpretations of the original songs. You may use it for private study, scholarship, research or language learning purposes only