» » »

Shadows - Midnight Tabs

Artists:  A B C D E F G H I J K L M N O P Q R S T U V W X Y Z # 

Midnight Tabs

(ver. 1) Click to play this song!
Shadows
 Rating:
3/5 (9 votes)

 Midnight lessons Tabs too difficult? Try these video lessons and learn fast
 
                add bends, slides and vibratos as u like...

--------------17-15----------12b-10------------10b-8-----------12b-10---------
-13-15-15/17------------------------13-12-10b--------12-10-8b---------13------
-----------------------12b----------------------------------------------------
                                                                              

---------10b-8-----------------12--10-8----10--8-10-10h11-8--8-10-10b--8-10-8-
-12-10b--------12-10-8b------9----------10------------------------------------
------------------------9-12--------------------------------------------------
                                                                              

---8---------|----------------------------------------------------------------
-8---8-------|-------3----------------------------------------------3---------
-------9-----|-2b--5---5-4-2----4-5-4-2----------------------2b-2b----5-4-2---
---------10--|---------------5----------5-3--5-6--5-3-2-3-5-------------------
-------------|----------------------------------------------------------------
-------------|----------------------------------------------------------------
                                                                              

-------------------------------------------|-12-10-8--7-5---10-8--7-5-3b--12--
-------------------------------------------|-13-12-10-8-6---12-10-8-6-5b--13--
---5-4-2----------2--------2-4--4-5-7-/-12-|----------------------------------
-5-------5-4--4-5----5-4-5-----------------|----------------------------------
-------------------------------------------|----------------------------------
-------------------------------------------|----------------------------------
                                                                              

-10-8--7-5---10-8--7-5-3b--3-4-/-12--10-8----10---8-10-10h11-8--8-10b--8----8-
-12-10-8-6---12-10-8-6-5b--5--------------10-----------------------------10---
                                                                              

----8---------|------8-10-8-------------8-------------------------------------
--8---8-------|-10b---------12-10-8--12---12-10-8-----------------------------
--------9-----|-----------------------------------10--12-13--12-10-9-10-12----
----------10--|---------------------------------------------------------------
--------------|---------------------------------------------------------------
--------------|---------------------------------------------------------------
                                                                              

----------10-8-----------8----------------------------------------------------
--10b-10b------12-10-8-----12-10-8---------------------------12--12-13-15--8v-
-----------------------------------11--11-12-14--12-11-12-14---------------9v-
                                                                              

-12-10-8---------10-8----------12-10-8--------10-8------------------12--10-8--
---------12-10--------12-10-8----------12-10-------12-10-8--------9-----------
-------------------------------------------------------------9-12-------------
                                                                              

----10--8-10-10h11-8--8-10-10b---8-10-10h11-8--8-10-10b--8-8--/15-12----------
-10------------------------------------------------------------------13-10----
                                                                              

----13----15----------------17b-15------12------------------------------------
---13----15----13-15b-/-17b-----------13--------------------------------------
--14----16---------------------------12---------------------------------------
-15----17---------------------------14----------------------------------------
 F     G                            C
            
Submit corrections


        Midnight lessons Hard to play? Try these video lessons and learn fast Midnight lessons
        
↑ Back to top | Tablatures and chords for acoustic guitar and electric guitar, ukulele, drums are parodies/interpretations of the original songs. You may use it for private study, scholarship, research or language learning purposes only