» » »

Shadows - In The Mood Bass

Artists:  A B C D E F G H I J K L M N O P Q R S T U V W X Y Z # 

In The Mood Bass

(ver. 1) Click to play this song!
Shadows
 Rating:
4/5 (4 votes)

 In The Mood lessons Tabs too difficult? Try these video lessons and learn fast
 
                Titre: In The Mood

Auteur: The Shadows


Commentaires: Voici mon essai de transcrire cette chanson des shadows, 
elle est assez simple à jouer, j'ai peut-être manquer quelques 
variations mais sinon tout est en harmonie.

		Here is my attempt to write this song, 
it is pretty simple to play, Perhaps have I missed some variations
but everything sounds good

Tempo: 140 (not sure but it is almost this tempo)

4/4                                                        
|-------------------3--4-|-5----------------------|---|---|
|----5--4--5--6--7-------|------------------------|---|---|
|------------------------|-------3----------------|---|---|
|------------------------|------------------------|---|---|
                                                           

                                                   
|------------------------|------------------------|
|------------------------|----------5-----5-------|
|-3--------3-------------|-3-----------------1--2-|
|-------------3--4--5--3-|------------------------|
                                                   

                                                   
|------------------------|------------------------|
|------------------------|----------5-----5--1--2-|
|-3--------3-------------|-3----------------------|
|-------------3--4--5--3-|------------------------|
                                                   

                                                   
|------------------------|----------5-----5-------|
|-3--------3-------------|-3-----------------3--5-|
|-------------3--4--5--3-|------------------------|
|------------------------|------------------------|
                                                   

                                                   
|------------------------|------------------------|
|------------------------|----------5-----5--3--4-|
|-3--------3-------------|-3----------------------|
|-------------3--4--5--3-|------------------------|
                                                   

                                                   
|------------------------|----------7-----7-------|
|-5--------5-------------|-5----------------------|
|-------------5--6--7--5-|------------------------|
|------------------------|------------------------|
                                                   

                                                   
|-------------------3--4-|-5----------------------|
|----5--4--5--6--7-------|------------------------|
|------------------------|-------3----------------|
|------------------------|------------------------|
                                                   

                                                   
|------------------------|------------------------|
|------------------------|----------5-----5-------|
|-3--------3-------------|-3-----------------1--2-|
|-------------3--4--5--3-|------------------------|
                                                   

                                                   
|------------------------|------------------------|
|------------------------|----------5-----5--1--2-|
|-3--------3-------------|-3----------------------|
|-------------3--4--5--3-|------------------------|
                                                   

                                                   
|------------------------|----------5-----5-------|
|-3--------3-------------|-3-----------------3--5-|
|-------------3--4--5--3-|------------------------|
|------------------------|------------------------|
                                                   

                                                   
|------------------------|------------------------|
|------------------------|----------5-----5--3--4-|
|-3--------3-------------|-3----------------------|
|-------------3--4--5--3-|------------------------|
                                                   

                                                   
|------------------------|----------7-----7-------|
|-5--------5-------------|-5----------------------|
|-------------5--6--7--5-|------------------------|
|------------------------|------------------------|
                                                   

                                                   
|-------------------3--4-|-5--5--4--5--6--8--9-10-|
|----5--4--5--6--7-------|------------------------|
|------------------------|------------------------|
|------------------------|------------------------|
                                                   

                                                   
|------------------------|------------------------|
|-3--------3-------------|------------------------|
|-------------5--------5-|-1--------1-------------|
|------------------------|-------------3--------3-|
                                                   

                                                   
|------------------------|----------4--5----------|
|-3--------3-----------7-|-5----------------------|
|-------------5----------|------------------------|
|------------------------|------------------------|
                                                   

                                                   
|------------------------|------------------------|
|-3--------3-------------|------------------------|
|-------------5--------5-|-1--------1-------------|
|------------------------|-------------3--------3-|
                                                   

                                                   
|------------------------|------------------------|
|----3--3--3--3--3--3--3-|-3--5--5--5--5----------|
|-3----------------------|----------------3-----3-|
|------------------------|------------------------|
                                                   

                                                   
|------------------------|------------------------|
|-3--------3-------------|------------------------|
|-------------5--------5-|-1--------1-------------|
|------------------------|-------------3--------3-|
                                                   

                                                   
|------------------------|----------4--5----------|
|-3--------3-----------7-|-5----------------------|
|-------------5----------|------------------------|
|------------------------|------------------------|
                                                   

                                                   
|------------------------|------------------------|
|-3--------3-------------|------------------------|
|-------------5--------5-|-1--------1-------------|
|------------------------|-------------3--------3-|
                                                   

                                                                
|------------------------|------------------------|------------|
|----------3-------------|----3--5-----3-----2----|------------|
|-3--4--5----------------|------------------------|-5--3-------|
|------------------------|------------------------|------------|
                                                                

                                                   
|------------------------|------------------------|
|------------------------|----------5-----5-------|
|-3--------3-------------|-3-----------------1--2-|
|-------------3--4--5--3-|------------------------|
                                                   

                                                   
|------------------------|------------------------|
|------------------------|----------5-----5--1--2-|
|-3--------3-------------|-3----------------------|
|-------------3--4--5--3-|------------------------|
                                                   

                                                   
|------------------------|----------5-----5-------|
|-3--------3-------------|-3-----------------3--5-|
|-------------3--4--5--3-|------------------------|
|------------------------|------------------------|
                                                   

                                                   
|------------------------|------------------------|
|------------------------|----------5-----5--3--4-|
|-3--------3-------------|-3----------------------|
|-------------3--4--5--3-|------------------------|
                                                   

                                                   
|------------------------|----------7-----7-------|
|-5--------5-------------|-5----------------------|
|-------------5--6--7--5-|------------------------|
|------------------------|------------------------|
                                                   

                                                           
|-------------------3--4-|-5----------------------|---|---|
|----5--4--5--6--7-------|------------------------|---|---|
|------------------------|-------3----------------|---|---|
|------------------------|------------------------|---|---|
                                                           

                                                   
|------------------------|------------------------|
|------------------------|----------5-----5-------|
|-3--------3-------------|-3-----------------1--2-|
|-------------3--4--5--3-|------------------------|
                                                   

                                                   
|------------------------|------------------------|
|------------------------|----------5-----5--1--2-|
|-3--------3-------------|-3----------------------|
|-------------3--4--5--3-|------------------------|
                                                   

                                                   
|------------------------|----------5-----5-------|
|-3--------3-------------|-3-----------------3--5-|
|-------------3--4--5--3-|------------------------|
|------------------------|------------------------|
                                                   

                                                   
|------------------------|------------------------|
|------------------------|----------5-----5-------|
|-3--------3-------------|-3-----------------3--5-|
|-------------3--4--5--3-|------------------------|
                                                   

                                                   
|------------------------|------------------------|
|------------------------|------------------------|
|------------------------|----------5-----5-------|
|-3--------3--0--1--2--0-|-3----------------------|
                                                   

                                                               
|-------------------3--4-|-5----------------------|---|---|---|
|----5--4--5--6--7-------|------------------------|---|---|---|
|------------------------|-------3----------------|---|---|---|
|------------------------|------------------------|---|---|---|
                                                               

                                                   
|------------------------|------------------------|
|------------------------|----------5-----5-------|
|-3--------3-------------|-3-----------------1--2-|
|-------------3--4--5--3-|------------------------|
                                                   

                                                   
|------------------------|-------------------3-4-5|
|------------------------|----------5-----5-------|
|-3--------3-------------|-3----------------------|
|-------------3--4--5--3-|------------------------|
                                                   

                                                   
|------------------------|----------5-----5-------|
|-3--------3-------------|-3-----------------3-4-5|
|-------------3--4--5--3-|------------------------|
|------------------------|------------------------|
                                                   

                                                   
|------------------------|------------------------|
|------------------------|----------5-----5--3--4-|
|-3--------3-------------|-3----------------------|
|-------------3--4--5--3-|------------------------|
                                                   

                                                   
|------------------------|----------7-----7-------|
|-5--------5-------------|-5----------------------|
|-------------5--6--7--5-|------------------------|
|------------------------|------------------------|
                                                   

                                                       
|-------------------3--4-|-5--5--4--5--3----------|---|
|----5--4--5--6--7-------|----------------5--4----|---|
|------------------------|----------------------6-|-3-|
|------------------------|------------------------|---|
            
Submit corrections


        In The Mood lessons Hard to play? Try these video lessons and learn fast In The Mood lessons
        
↑ Back to top | Tablatures and chords for acoustic guitar and electric guitar, ukulele, drums are parodies/interpretations of the original songs. You may use it for private study, scholarship, research or language learning purposes only